Song name
# A B C D E F G H I J K L M N O P Q R S T U V W X Y Z

Bright Eyes - Blue Christmas tab

this is my first tab, enjoy, the chords for the rest of the song are in the first one 
as chords, use those chords but with the capo
capo on 1st

---------------------------------------------|
----5-7-7/9-9-9-7--5-4/7-7-12----------------|
-4-------------------------------------------|
---------------------------------------------|
---------------------------------------------|
---------------------------------------------|

---------------------------------------------|
----7-9-9/10-10-10-9--7-5/9--9---------------|
-4-------------------------------------------|
---------------------------------------------|
---------------------------------------------|
---------------------------------------------|

---------------------------------------------------|
-9-10-12-10-9-12--10-9-7--9-10-14------------------|
---------------------------------------------------|
---------------------------------------------------|
---------------------------------------------------|
---------------------------------------------------|

-------------------------------------------------|
-------------------------------------------------|
-------------------------------------------------|
-------------------------------------------------|
-2--2h6-2h7-9-9/11-9/11-9/11-9 7-----------------|
-------------------------------------------------|
Tap to rate this tab
# A B C D E F G H I J K L M N O P Q R S T U V W X Y Z