Song name
# A B C D E F G H I J K L M N O P Q R S T U V W X Y Z

Bring Me The Horizon - Chelsea Smile tab

           Chelsea Smile!!!!!!!!! - Bring Me To The Horison

This is 100% correct,I'm sure. I am a very experienced tabber and I know my stuff, be 
nice, first timer here. rock on freaky bros!

|-------------------------------------------------------------------|
|--------------------------246------25464------------24-------------|
|-------24-------246----------------------45p----35632------5-------|
|--------------357--------570957------------246---------------------| x17
|---------------------------------------3246------------------------|
|--0570-------------------------------------------------------------|

|---------------------------50----69--------------------------------------|
|------------------------------62----42414083--<3.9>----------------------|
|-------------------------------------------------------------------------|
|-0-000-0-0000-0--0--0---0--0-------------------------0--0--0--0--000-0--0|
|-0-000-0-0000-0--0--0---0--0-------------------------0--0--0--0--0000--0-|
|-0-000-0-0000-0--0--0---0--0-------------------------0--0--0--0--000-0---|
 <---- the tab. ENJOY.

Tuning = Drop G# with a flattened C
Tap to rate this tab
# A B C D E F G H I J K L M N O P Q R S T U V W X Y Z