Song name
# A B C D E F G H I J K L M N O P Q R S T U V W X Y Z

Brownsville Station - Smoking In The Boysroom tab

Help us improve GuitareTab! Take a short survey!
Song: Smokin' In The Boysroom
Artist: Brownsville Station
Tuning: Standard
Comments: Classic song, easy to play.

/ = slide


Intro:

e|--------|
B|--------|
G|--6/7---|
D|--6/7---|
A|--4/5---|
E|--------|   repeat as necessary

Main Riff:

e|---------------------------------|
B|---------------------------------|
G|--6/7------6/7-------------------|
D|--6/7------6/7-----7/8------7/8--|
A|--4/5------4/5-----7/8------7/8--|
E|-------------------5/6------5/6--|       repeat as necessary

Chorus:

e|------------|
B|------------|
G|------------|
D|------------|
A|--5-5--5-7--|
E|--3-3--3-3--|      repeat as necessary
Related for Smoking In The Boysroom tab