Guitaretab - guitar tabs
Song name
# A B C D E F G H I J K L M N O P Q R S T U V W X Y Z

Bruce Springsteen - Because The Night tab

#----------------------------------PLEASE NOTE---------------------------------#
#This file is the author's own work and represents their interpretation of the #
#song. You may only use this file for private study, scholarship, or research. #
#------------------------------------------------------------------------------##

"Because the Night" Patti Smith - Bruce Springsteen
===================================================

Guitar solo by KS
(I don't know music very well, the tempos and bars are indicatives!!)
Bye :-)


Gtr I (E A D G B E) - 'Solo'
[ Tab from: http://www.guitaretab.com/b/bruce-springsteen/128677.html ]
 4/4
  Gtr I
|-----------|---------------------------|--------------------|
|-----------|---------------------------|----------10b12-10--|
|-----------|---------7-9-7-9b11--9b11--|-9b11r9p7-----------|
|-----------|-----7-9-------------------|--------------------|
|-555555555-|-7b9-----------------------|--------------------|
|-----------|---------------------------|--------------------|


|--------------------------------------|-------|
|---10b12r10p7-------------------------|-------|
|--------------9-7h9p7---7-9-9b11-9b11-|-9-----|
|----------------------9---------------|-------|
|--------------------------------------|-------|
|--------------------------------------|-------|


|-------------------------10-12-10-12b14----|
|----------------10-10S12-------------------|
|---------7-9S11----------------------------|
|-----7-9-----------------------------------|
|-5S9---------------------------------------|
|-------------------------------------------|


Tablature Legend
----------------
 h   - hammer-on
 p   - pull-off
 b   - bend
 r   - bend release (if no number after the r, then release immediately)
 s   - legato slide
Related for Because The Night tab