Song name
# A B C D E F G H I J K L M N O P Q R S T U V W X Y Z

Bruce Springsteen - Further On Up The Road tab

Further on (up the road)
Bruce Springsteen
By Steini

Capo on 1st Fret!

Intro: |n.c.|n.c.|n.c.|n.c.| Em |
        <---drum-intro---->

                   Em                   G                        Em
Where the road is dark  And the seat is soaked  Where the gun is cocked
                 G                         Em  D               Em D
And the bullet's cold  Where the miles are marked in blood and gold
      C               D         Em
I'll meet you further on up the road 

                      Em                         G                        Em
Got on my dead man's suit   And my smilin' skull ring  My lucky graveyard boots
              G                      Em D                     Em D
And a song to sing   I got a song to sing, keep me out of the cold
         C                D         Em
And I'll meet you further on up the road 

                   D                       Em                      Em
Further on up the road  Further on up the road   Where the way is dark
                  B                    Em  D                 Em D
And the night is cold   But one sunny morning we'll rise, I know
          C               D         Em
And I'll meet you further on up the road

Solo: (Em  G  Em  G  Em D  Em D  C D Em)
|------------|------|------------|------|------------|-----13-|
|----9-13/11-|13~---|----9-13/11-|13~---|----9-13/11-|13~-----|
|-10---------|------|-10---------|------|-10---------|--------|
|------------|------|------------|------|------------|--------|
|------------|------|------------|------|------------|--------|
|------------|------|------------|------|------------|--------|

|-13-11-------|-----|-------11-13~-|-13-11~-------|--------|--------|------------|-----------|
|--------13\11|-13--|-13-13--------|---------13\11|-13--13-|-11-----|-14-13-11-9-|-8--6/4-6--|
|-------------|-----|--------------|--------------|--------|------10|------------|-----------|
|-------------|-----|--------------|--------------|--------|--------|------------|-----------|
|-------------|-----|--------------|--------------|--------|--------|------------|-----------|
|-------------|-----|--------------|--------------|--------|--------|------------|-----------|

                        Em                   G                           Em
Well I been out in the desert  Was doin' my time   Searching through the dust
              G                              D                           Em
Looking for a sign   If there's a light up ahead  Well, buddy, I don't know
                Em                    B                       Em     D
But I got this fever   Burning in my soul  So let's take the good times
        Em D             C               D          Em
as they come   And I'll meet you further on up the road 

                   G                        Em                       G
Further on up the road   Further on up the road   Further on up the road
                   B                 Em  D               Em D
Further on up the road   One sunny morning we'll rise, I know
         C                D         Em                Em  D/F#             G D/F#
And I'll meet you further on up the road  One sunny morning we'll rise, I know
         C                D         Em
And I'll meet you further on up the road
Tap to rate this tab
 
# A B C D E F G H I J K L M N O P Q R S T U V W X Y Z