Bruno Mars - Just The Way You Are tab

-------------------------------------------------------------------------------
	       Just The Way You Are (intro) - Bruno Mars
-------------------------------------------------------------------------------
Tabbed by:pan!klove

This is how I like to play the main riff, I'm pretty sure you can play this throughout 
entire song. This is my first tab, so I'm sorry if it sucks

Tuning:Standard

e|1-1-------------1-1--------------1-1--------------1-1--------------------|
B|---1-1------1-1----1-1------1-1-----1-1-------1-1-----1-1------1-1-------|
G|-------3p2-3-----------3p2-3-------------3p2-3------------3p2-3----------|
D|3-3-------------0-0------------------------------------------------------|
A|---------------------------------1-1-------------------------------------|
E|--------------------------------------------------1-1--------------------|


************************************

| /   slide up
| \   slide down
| h   hammer-on
| p   pull-off
| ~   vibrato
| +   harmonic
| x   Mute note
| b   Bend
| pb  Pre-bend
| br  Bend release
| pbr Pre-bend release
| brb Bend release bend

************************************
Tap to rate this tab
 
# A B C D E F G H I J K L M N O P Q R S T U V W X Y Z