Song name
# A B C D E F G H I J K L M N O P Q R S T U V W X Y Z

Bruno Mars - Just The Way You Are tab

  

                          "JUST THE WAY YOU ARE" 
                               Bruno Mars
                                 Intro
                          Tab by Jeremy "Oodava" 
                           (youtube.com/oodava)

Capo 3rd Fret.
Drop "D" tuning.

   (D Chord)
e|------------------|-----------------------|
B|-3---3------------|-----------------------|
G|---2---2---2----0-|-------0h2-----2-----2-|
D|-----0---0---0----| 4----------------0----|
A|------------------|-----------------------|
D|-0----------------|-----------------------|
   1 & 2 & 3 & 4  &   1  -  2 & (3) &  4  &  
   ^ (Let bass "D" note ring)

   (Bm7 Chord)
e|------------------|-----------------------|
B|-3---3------------|-----------------------|
G|---2---2---2----0-|-------0h2-----2-----2-|
D|-----4---4---4----| 4----------------4----|
A|-2----------------|-----------------------|
D|------------------|-----------------------|
   1 & 2 & 3 & 4  &   1  -  2 & (3) &  4  &  
   ^ (Let bass "B" note ring)

   (G Chord)
e|------------------|-----------------------|
B|-3---3------------|-----------------------|
G|---2---2---2----0-|-------0h2-----2-----2-|
D|-----0---0---0----| 4----------------0----|
A|------------------|-----------------------|
D|-5----------------|-----------------------|
   1 & 2 & 3 & 4  &   1  -  2 & (3) &  4  &  
   ^ (Let bass "G" note ring)
Tap to rate this tab
 
# A B C D E F G H I J K L M N O P Q R S T U V W X Y Z