Song name
# A B C D E F G H I J K L M N O P Q R S T U V W X Y Z

Brutal Truth - Time tab

TUNING
C# F# B E G# C#

------------------------------------------------------------------------------|
------------------------------------------------------------------------------|
-------------------------------------333--------------------------------------|
--------------333222--------------333-----------------333222------------------|
-------------------------------------------------------------9---8---7---6-2--|
-000000001133--------000000001133--------000000001133--------7-0-6-0-5-0-4-0--|

---------------------------------|
---------------------------------|
---------------------------------|
---------------------------------|
-2-8-3-------3-9-5-3-------7-6---|
-0-6-1-2-1-2-1-7-3-1-7-6-7-------|
Tap to rate this tab
# A B C D E F G H I J K L M N O P Q R S T U V W X Y Z