Song name
# A B C D E F G H I J K L M N O P Q R S T U V W X Y Z

Bryan Adams - The Only Thing That Looks Good On Me Is You tab

-------------------------------------------------------------------------------
			     THE ONLY THING THAT LOOKS GOOD ON ME IS YOU - Bryan Adams
-------------------------------------------------------------------------------
Tabbed by: si19


Tuning: standard i think.
Put a bit of chorus of phaser on the guitar, it sounds pretty cool with it.

I tabbed out this song by a combination of listening to the song and watching the live 
of the song performed at at Budokan, Japan which can be found on youtube.

Anyway,
The intro part sounds to me like muffled strings, if you listen closely then the guitar goes:

e|-----------------------------------------------------|
B|-----------------------------------------------------|
G|--------------10-------------------------------------|
D|---/12--12-12----12~~-5-7-7-5-7-7-5---5-5-5-5--------|
A|----------------------5-7-7-5-7-7-5---3-2-2-3-5-5----|
E|----------------------------------------------3-3----|

e|-------------------------------------|
B|-------------------------------------|
G|-------------------------------------|
D|-----5-7-7-5-7-7-5---5-5-5-5---------|     x2
A|-----5-7-7-5-7-7-5---3-2-2-3-5-5-----|
E|-----------------------------3-3-----|

e|---------------------------------|      (Second Guitar)
B|----/15-15----13-15-15~~~--------|      Repeated.
g|------------14------14~~~--------|
D|---------------------------------|
A|---------------------------------|
E|---------------------------------|

Verse-

e|-------------------------------------|
B|-------------------------------------|    Repeated until the chorus.
G|-------------------------------------|         And repeated throughout the chorus!
D|-----5-7-7-5-7-7-5---5-5-5-5---------|
A|-----5-7-7-5-7-7-5---3-2-2-3-5-5-----|
E|-----------------------------3-3-----|

Chorus-

e|----------------------------------|                Second guitar during solo!
B|----------------------------------|
G|----------------------------------|   x2
D|-----7--7-7---5-------------------|
A|-----5--5-5---3---5--5-5-5--------|
E|------------------3--3-3-3--------|

                                                                           The only 
that looks good on me...                                is you!
e|-----------------------------------------------------------------------------|
B|-----------------------------------------------------------------------------|
G|---------------------------------------------------------------------10------|
D|-----7--7-7---5--------------------------------------------/12--12~12---12~--|
A|-----5--5-5---3---5--5-5-5--3------------------------------------------------|
E|------------------3--3-3-3--1------------------------------------------------|

e|-------------------------------------|
B|-------------------------------------|       x2
G|-------------------------------------|
D|-----5-7-7-5-7-7-5---5-5-5-5---------|
A|-----5-7-7-5-7-7-5---3-2-2-3-5-5-----|
E|-----------------------------3-3-----|

e|---------------------------------|      (Second Guitar)
B|----/15-15----13-15-15~~~--------|      Repeated.
g|------------14------14~~~--------|
D|---------------------------------|
A|---------------------------------|
E|---------------------------------|

Repeat the whole thing again for the second verse and chorus.

Then the break part of the song. Keith plays a riff like so:

e|-----------------------------------------------------|
B|---------15--15--15-15-15-15-15-15-15-15-15-15-15----|
g|---------14--14--14-14-14-12-12-12-12-12-12-12-12----|      x2
D|-----------------------------------------------------|
A|-----------------------------------------------------|
E|-----------------------------------------------------|

then:

e|------------------------------------------------------------------------------|
B|------------------------------------------------------------------------------|
G|------------------------------------------------------------------------------|
D|-----------------------------5--5--5--5--5--5--5--5---3--3--3--3--3--3--3--3--|
A|----3--3--3--3--3--3--3--3---3--3--3--3--3--3--3--3---1--1--1--1--1--1--1--1--|
E|----1--1--1--1--1--1--1--1----------------------------------------------------|

e|-------------------------------|
B|-------------------------------|
G|-------------------------------|
D|-------------------------------|
A|----3--3--3--3--5--5--5--------|
E|----1--1--1--1--3--3--3--------|


Then the rest of the song is basically a pattern of the above riffs.
Please Rate.

Thanks for the read.


| /  slide up
| \  slide down
| h  hammer-on
| p  pull-off
| ~  vibrato
| +  harmonic
| x  Mute note
=================================================================
Tap to rate this tab
# A B C D E F G H I J K L M N O P Q R S T U V W X Y Z