Song name
# A B C D E F G H I J K L M N O P Q R S T U V W X Y Z

Bryan Adams - Heaven tab

Megan Nicole/Boyce Avenue Solo Cover

Tab by: simonmuse


e-------------------------|-------------------------|
B----7-9---5h7~-----------|--------4h5p4------------|
G--8----------------------|---4h6---------6p4-------|
D-------------------------|-6-----------------6-----|
A-------------------------|-------------------------|
E-------------------------|-------------------------|

e-------------------------|-------------------------|
B-----7-9---7~------------|-------------------------|
G--8----------------------|----6-8b9b8-6--4h6-------|
D-------------------------|--9----------------------|
A-------------------------|-------------------------|
E-------------------------|-------------------------|

e-------------------------|----------------------|
B-------------------------|----------------------|
G--4p3p1------------------|----------------------|
D-------------------------|----------------------|
A-------------------------|----------------------|
E-------------------------|----------------------|

Chorus comes right after ----
Tap to rate this tab
 
# A B C D E F G H I J K L M N O P Q R S T U V W X Y Z