Song name
# A B C D E F G H I J K L M N O P Q R S T U V W X Y Z

Bryan Adams - Heaven tab

Intro:             HEAVEN - BRYAN ADAMS
e|----------------------------------------------------------------|
B|----------------------------------------------------------------|
G|------7-9------7-9-----7-9-10-9---------12-----10-9-------------|
D|--10-------10-------10----------10--10--------------10----------|
A|-------------------------------------------------------12-------|
E|----------------------------------------------------------------|

  Verse:
e|----------------------------------------------------------------|
B|----------------------------------------------------------------|
G|9~--9~--9~--9~-----7~--7~--7~--7~-----10~---10~----9~---9~------|
D|----------------------------------------------------------------|
A|----------------------------------------------------------------|
E|----------------------------------------------------------------|
  Oh thinking about our younger years there was only you and me

e|----------------------------------------------------------------|
B|----------------------------------------------------------------|
G|---10~---10~------9~----12~----------9~--9~--9~--9~--7~-7~-7~-7~|
D|----------------------------------------------------------------|
A|----------------------------------------------------------------|
E|----------------------------------------------------------------|
  we were young and we were free   Now nothing can take you away from me

e|----------------------------------------------------------------|
B|----------------------------------------------------------------|
G|-----------10~-10~-9~--9~-----------------9~--9~----------------|
D|---------------------------------10~-10~------------------------|
A|----------------------------------------------------------------|
E|----------------------------------------------------------------|
  we´ve been down that road before but that´s over now

e|----------------------------------------------------------------|
B|----------------------------------------------------------------|
G|-----------7~----7~-----7~--------------------------------------|
D|----------------------------------------------------------------|
A|----------------------------------------------------------------|
E|----------------------------------------------------------------|
  You keep me coming back for more

 Refrain:
e|----------------------------------------------------------------|
B|----------------------------------------------------------------|
G|----------------------------------------5~----------------------|
D|--3~---------5~----------7~-------------5~----------------3~----|
A|--3~---------5~----------7~-------------3~----------------3~----|
E|--1~---------3~----------5~-------------------------------1~----|
  Baby you´re all that I want when you´re lying here in my arms

e|----------------------------------------------------------------|
B|----------------------------------------------------------------|
G|-------------------------------------------------12/14-12~------|
D|----3~----------5~--------7~------------------------------------|
A|----3~----------5~--------7~------------------------------------|
E|----1~----------3~--------5~------------------------------------|
  I´m finding it hard to believe we´re in heaven

e|----------------------------------------------------------------|
B|----------------------------------------------------------------|
G|--------------------------------------5~------------------------|
D|----3~-------5~----------7~-----------5~----------------3~------|
A|----3~-------5~----------7~-----------3~----------------3~------|
E|----1~-------3~----------5~-----------------------------1~------|
  And love is all that I need and I found it here in your heart

e|----------------------------------------------------------------|
B|----------------------------------------------------------------|
G|---------------------------------------------12~----------------|
D|----3~--------5~------7~-----------5~----10---------------------|
A|----3~--------5~------7~-----------5~---------------------------|
E|----1~--------3~------5~-----------3~---------------------------|
  It isn´t too hard to see we´re in heaven

  Bridge:
e|----------------------------------------------------------------|
B|----------------------------------------------------------------|
G|-----7-9-----7-9-/10-9------------------------------------------|
D|-10-------10-----------10---------------------------------------|
A|-------------------------12~------------------------------------|
E|----------------------------------------------------------------|

  Verse:
e|----------------------------------------------------------------|
B|----------------------------------------------------------------|
G|9~--9~--9~--9~-----7~--7~--7~--7~-----10~---10~----9~---9~------|
D|----------------------------------------------------------------|
A|----------------------------------------------------------------|
E|----------------------------------------------------------------|
 Oh once in your life you find someone who will turn your life around

e|----------------------------------------------------------------|
B|----------------------------------------------------------------|
G|---10~---10~------9~----12~----------9~--9~--9~--9~-------------|
D|----------------------------------------------------------------|
A|----------------------------------------------------------------|
E|----------------------------------------------------------------|
 Bring you up when you´re feeling down   Yeah nothing can change

e|----------------------------------------------------------------|
B|-----------------3----------------------------------------------|
G|--------------4------------------10~--10~---9~---9~-------------|
D|----------------------------------------------------------------|
A|----------5-----------------------------------------------------|
E|----------------------------------------------------------------|
  what you mean to me   Oh there´s lots that I could say

e|----------------------------------------------------------------|
B|----------------------------------------------------------------|
G|------------------9~---9~------7~---7~--7~--7~------------------|
D|-------10~--10~-------------------------------------------------|
A|----------------------------------------------------------------|
E|----------------------------------------------------------------|
  But just hold me now  cause or love will light the way


   Refrain:
e|----------------------------------------------------------------|
B|----------------------------------------------------------------|
G|----------------------------------------5~----------------------|
D|3~-----------5~---------7~--------------5~---------------3~-----|
A|3~-----------5~---------7~--------------3~---------------3~-----|
E|1~-----------3~---------5~-------------------------------1~-----|
  Baby you´re all that I want when you´re lying here in my arms

e|----------------------------------------------------------------|
B|-------------------------------------------------13p12----------|
G|-------------------------------------------------------12-------|
D|----3~----------5~--------7~------------------------------12----|
A|----3~----------5~--------7~------------------------------------|
E|----1~----------3~--------5~------------------------------------|
  I´m finding it hard to believe we´re in heaven

e|----------------------------------------------------------------|
B|----------------------------------------------------------------|
G|-----------------------------------5~---------------------------|
D|-----3~-------5~--------7~---------5~--------------------3~-----|
A|-----3~-------5~--------7~---------3~--------------------3~-----|
E|-----1~-------3~--------5~-------------------------------1~-----|
  Yeah love is all that I need and I found it there in your heart


e|----------------------------------------------------------------|
B|--------------------------------------------------12------------|
G|----------------------------------------------------------------|
D|----3~-------5~------7~---------------------10h12---------------|
A|----3~-------5~------7~-----------------------------------------|
E|----1~-------3~------5~-----------------------------------------|
  It isn´t too hard to see we´re in heaven

 Bridge:
e|----------------------------------------------------------------|
B|-13-13-12-10-12-------------------------------------------------|
G|----------------12----------------------------------------------|
D|---------------------------------------3~-----5~-----------5~---|
A|---------------------------------------3~-----5~-----------5~---|
E|---------------------------------------1~-----3~-----------3~---|
                       I´ve been waiting for so long for something
e|----------------------------------------------------------------|
B|----------------------------------------------------------------|
G|-------------------------------5~-----5-7~----------------------|
D|---7~--------------------------5~---5-5-7~----------------------|
A|---7~--------------------------3~---5-3-5~----------------------|
E|---5~-------------------------------3---------------------------|
  to arrive  for love to come along            Now our dreams are

e|----------------------------------------------------------------|
B|----------------------------------------------------------------|
G|----------------------------------------------------------------|
D|-3~-----5~--------------------------------3~--------------------|
A|-3~-----5~--------------------------------3~--------------------|
E|-1~-----3~--------------------------------1~--------------------|
  coming true through the good times and the bad  yeah I´ll be

e|----------------------------------------------------------------|
B|----------------------------------------------------------------|
G|-5~-------------------------------------------------------------|
D|-5~-------------------------------------------------------------|
A|-3~-------------------------------------------------------------|
E|----------------------------------------------------------------|
  standing there by you

e|----------------------------------------------------10--7-8-7-----|
B|---8-10-10~----8--------10-8----------------8-8^10-8----------7---|
G|--9--------------7^9r--------7^9/5~--7-7^9-9----------------------|
D|------------------------------------------------------------------|
A|------------------------------------------------------------------|
E|------------------------------------------------------------------|
  Refrain:
e|----------------------------------------------------------------|
B|----------------------------------------------------------------|
G|--------------------------------------------5~------------------|
D|----3~----------5~---------7~---------------5~----------------3~|
A|----3~----------5~---------7~---------------3~----------------3~|
E|----1~----------3~---------5~---------------------------------1~|
  And baby you´re all that I want when you´re lying here in my arms

e|----------------------------------------------------------------|
B|----------------------------------------------------------------|
G|----------------------------------------------------------------|
D|----3~----------5~---------7~---------------5~---------3~-------|
A|----3~----------5~---------7~---------------5~---------3~-------|
E|----1~----------3~---------5~---------------3~---------1~-------|
  I´m finding it hard to believe we´re in heaven   And love is

e|----------------------------------------------------------------|
B|----------------------------------------------------------------|
G|-----------------------5~---------------------------------------|
D|-5~--------7~----------5~--------------------3~-------3~--------|
A|-5~--------7~----------3~--------------------3~-------3~--------|
E|-3~--------5~--------------------------------1~-------1~--------|
  all that I need and I found it here in your heart it isn´t too

e|----------------------------------------------------------------|
B|----------------------------------------------------------------|
G|----------------------------------------------------------------|
D|-5~-----7~--------------3~--------------------------------------|
A|-5~-----7~--------------3~--------------------------------------|
E|-3~-----5~--------------1~--------------------------------------|
  hard to see we´re in heaven




I love this song, so I decided to write a full song tab, since I could not find a good 
one. This should fix all your problems.

The only thing that is not included is the 2nd solo at the end of the song.
I didn't bother since it fades out at the end.

The 1st solo may not by totally accurate but it still works. It a nice easy song to play 
and I hope you enjoy it!

If there are any other mistakes mail me.

thank you
Tap to rate this tab
# A B C D E F G H I J K L M N O P Q R S T U V W X Y Z