Song name
# A B C D E F G H I J K L M N O P Q R S T U V W X Y Z

Bryan Adams - Heaven tab

Heaven-  Words and Music by Bryan Adams & Jim Vallance

  Intro:
    C     Am     G      F     C      Am       G       F
e|----------------------------------------------------------------|
B|----------------------------------------------------------------|
G|-----------------------------------12------10-9-----------------|
D|----------------------------10------------------10--------------|
A|----------------------------------------------------12----------|
E|----------------------------------------------------------------|

  Verse1:
  C    Am                 G                      Dm          Am
e|----------------------------------------------------------------|
B|----------------------------------------------------------------|
G|----------------------------------------------------------------|
D|----------------------------------------------------------------|
A|----------------------------------------------------------------|
E|--------------------------------------0----3--------------------|
    Oh thinking about our younger years there was only you and me

          Bb                Gsus4   G     C     Am                   G
e|----------------------------------------------------------------|
B|----------------------------------------------------------------|
G|----------------------------------------------------------------|
D|----------------------------------------------------------------|
A|----------------------------------------------------------------|
E|----------------------------------------------------------------|
  we were young and we were free         Now nothing can take you away from me

             Dm               Am               Bb                F/A
e|----------------------------------------------------------------|
B|----------------------------------------------------------------|
G|----------------------------------------------------------------|
D|----------------------------------------------------------------|
A|----------------------------------------------------------------|
E|--0----3--------------------------------------------------------|
  we´ve been down that road before but that´s over now

              Gsus4            G
e|----------------------------------------------------------------|
B|----------------------------------------------------------------|
G|----------------------------------------------------------------|
D|----------------------------------------------------------------|
A|----------------------------------------------------------------|
E|----------------------------------------------------------------|
  You keep me coming back for more


   Chorus1:
  F          G         Am                  C               F
e|----------------------------------------------------------------|
B|----------------------------------------------------------------|
G|----------------------------------------------------------------|
D|----------------------------------------------------------------|
A|----------------------------------------------------------------|
E|------------------------------0-----2---------------------------|
  Baby you´re all that I want: when you´re lying here in my arms

               G            Am               G
e|----------------------------------------------------------------|
B|----------------------------------------------------------------|
G|----------------------------------------------------------------|
D|----------------------------------------------------------------|
A|-------------------------------------------------12/14--12------|
E|----------------------------------------------------------------|
  I´m finding it hard to believe, we´re in heaven


      F      G            Am         C                    F
e|----------------------------------------------------------------|
B|----------------------------------------------------------------|
G|----------------------------------------------------------------|
D|----------------------------------------------------------------|
A|----------------------------------------------------------------|
E|-----------------------------0--2-------------------------------|
  And love is all that I need and I found it here in your heart,

               G       Am            G
e|----------------------------------------------------------------|
B|----------------------------------------------------------------|
G|----------------------------------------------------------------|
D|--------------------------------------------12------------------|
A|-----------------------------------------10---------------------|
E|----------------------------------------------------------------|
  It isn´t too hard to see we´re in heaven


Link:
  C      Am      G       F
e|----------------------------------------------------------------|
B|----------------------------------------------------------------|
G|-------------/10-9----------------------------------------------|
D|-------------------10-------------------------------------------|
A|----------------------12----------------------------------------|
E|----------------------------------------------------------------|


   Verse2:
  C  Am                   G                     Dm               Am
e|----------------------------------------------------------------|
B|----------------------------------------------------------------|
G|----------------------------------------------------------------|
D|----------------------------------------------------------------|
A|----------------------------------------------------------------|
E|--------------------------------------0---3---------------------|
   Oh once in your life you find someone who will turn your life around

            Bb                     Gsus4 G   C    Am
e|----------------------------------------------------------------|
B|----------------------------------------------------------------|
G|----------------------------------------------------------------|
D|----------------------------------------------------------------|
A|----------------------------------------------------------------|
E|----------------------------------------------------------------|
  Bring you up when you´re feeling down.       Yeah, nothing can change

           G                       Dm                Am
e|----------------------------------------------------------------|
B|-----------------3----------------------------------------------|
G|--------------4-------------------------------------------------|
D|----------------------------------------------------------------|
A|----------5-----------------------------------------------------|
E|----------------------------------------------------------------|
  what you mean to me.   Oh there´s lots that I could say

           Bb        F/A              Gsus4                G
e|----------------------------------------------------------------|
B|----------------------------------------------------------------|
G|----------------------------------------------------------------|
D|----------------------------------------------------------------|
A|----------------------------------------------------------------|
E|----------------------------------------------------------------|
  But just hold me now,       cause or love will light the way

Chourus2:
  F          G         Am                 C               F
e|----------------------------------------------------------------|
B|----------------------------------------------------------------|
G|----------------------------------------------------------------|
D|----------------------------------------------------------------|
A|----------------------------------------------------------------|
E|------------------------------0-----2---------------------------|
  Baby you´re all that I want when you´re lying here in my arms

                 G          Am             G
e|----------------------------------------------------------------|
B|-------------------------------------------------13p12----------|
G|-------------------------------------------------------12-------|
D|----------------------------------------------------------12----|
A|----------------------------------------------------------------|
E|----------------------------------------------------------------|
  I´m finding it hard to believe we´re in heaven

        F       G             Am        C                     F
e|----------------------------------------------------------------|
B|----------------------------------------------------------------|
G|----------------------------------------------------------------|
D|----------------------------------------------------------------|
A|----------------------------------------------------------------|
E|------------------------------0--2------------------------------|
  Yeah, love is all that I need and I found it there in your heart


                G      Am           G
e|----------------------------------------------------------------|
B|--------------------------------------------------12------------|
G|----------------------------------------------------------------|
D|--------------------------------------------10h12---------------|
A|----------------------------------------------------------------|
E|----------------------------------------------------------------|
  It isn´t too hard to see we´re in heaven


  Middle:
                       Dm               C/E      F
e|----------------------------------------------------------------|
B|-13-13-12-10-12-------------------------------------------------|
G|----------------12----------------------------------------------|
D|----------------------------------------------------------------|
A|----------------------------------------------------------------|
E|-------------------------------------------0--------------------|
                       I´ve been waiting for so long for something

  G       Am                          G/B      C Dm
e|----------------------------------------------------------------|
B|----------------------------------------------------------------|
G|----------------------------------------------------------------|
D|----------------------------------------------------------------|
A|----------------------------------------------------------------|
E|----------------------------------------------------------------|
  to arrive,  for love to come along.-----          Now our dreams are

 C/E        F                                  C
e|----------------------------------------------------------------|
B|----------------------------------------------------------------|
G|----------------------------------------------------------------|
D|----------------------------------------------------------------|
A|---------------------------7p5----------------------------------|
E|----0-----------------------------------------------------------|
    coming true through the good times and the bad.  Yeah, I´ll be


 Gsus4             G
e|----------------------------------------------------------------|
B|----------------------------------------------------------------|
G|----------------------------------------------------------------|
D|----------------------------------------------------------------|
A|----------------------------------------------------------------|
E|----------------------------------------------------------------|
  standing there by you

Solo:
e|----------------------------------------------------------------|
B|------------------------------------------------10--8-----------|
G|--9-12-12^14-12^14r----12^14--12--9--12--7-7^9r-------7^9r-5----|
D|------------------------------------------------------------7~--|
A|----------------------------------------------------------------|
E|----------------------------------------------------------------|

e|---------5---------------8^10-8-7-------------------------------|
B|------5------8^10^8r--5-----------8~----------------------------|
G|--7^9(9)(9)-----------------------------------------------------|
D|----------------------------------------------------------------|
A|----------------------------------------------------------------|
E|----------------------------------------------------------------|

  Chorus3:
      F          G         Am                   C               F
e|----------------------------------------------------------------|
B|----------------------------------------------------------------|
G|----------------------------------------------------------------|
D|----------------------------------------------------------------|
A|----------------------------------------------------------------|
E|----------------------------------0-----2-----------------------|
  And baby you´re all that I want: when you´re lying here in my arms

                 G           Am            G           F
e|----------------------------------------------------------------|
B|----------------------------------------------------------------|
G|----------------------------------------------------------------|
D|----------------------------------------------------------------|
A|----------------------------------------------------------------|
E|----------------------------------------------------------------|
  I´m finding it hard to believe we´re in heaven.   And love is

  G            Am         C                    F
e|----------------------------------------------------------------|
B|----------------------------------------------------------------|
G|----------------------------------------------------------------|
D|----------------------------------------------------------------|
A|----------------------------------------------------------------|
E|-----------------0--2-------------------------------------------|
  all that I need and I found it here in your heart it isn´t too

   G      Am           G
e|----------------------------------------------------------------|
B|----------------------------------------------------------------|
G|----------------------------------------------------------------|
D|----------------------------------------------------------------|
A|----------------------------------------------------------------|
E|----------------------------------------------------------------|
  hard to see we´re in heaven



the end solo goes like this.....

e|---8~---------8--8^10r-8^10r--8h10---------------/15--15^17^15r-----------|
B|---------8h10----------------------10~--10-12-13--------------------------|
G|--------------------------------------------------------------------------|
D|--------------------------------------------------------------------------|
A|--------------------------------------------------------------------------|
E|--------------------------------------------------------------------------|

e|--15^17(17)(17)^15r-----------------------15^17^15r---15^17(17)^15r-------|
B|---------------------17~--15-17-/18-17-------------17-----------------17--|
G|----------------------17-------------/17~---------------------------------|
D|--------------------------------------------------------------------------|
A|--------------------------------------------------------------------------|
E|--------------------------------------------------------------------------|

e|-/17-15--17--/17-15-------------------------------------------------------|
B|-----------17------17-15--------------------------------------------------|
G|------------------------17-16-14~---12^14r-12^14~r-12---------------------|
D|----------------------------------14-----------------15-14-12-14----------|
A|----------------------------------------------------------------15--17----|
E|--------------------------------------------------------------------------|

e|---------------|
B|---------------|
G|-----17-16-14~-|
D|---14----------|
A|-17------------|
E|---------------|
Tap to rate this tab
 
# A B C D E F G H I J K L M N O P Q R S T U V W X Y Z