Song name
# A B C D E F G H I J K L M N O P Q R S T U V W X Y Z

Bubble Puppy - Beginning tab

Bubble Puppy - Beginning
By:Andrew Mcshan (Guitarguyx182@aol.com)


Intro
e|---------------------------------------------------------------------------|
B|-----------------------12--------------------------------------------------|
G|-12-10-----5-7-9-10-12-----5-7-9-10-9-5-7-5/7/5-7--------------------------|
D|-12-10--x2-----------------------------------------------------------------|
A|-10-8----------------------------------------------------------------------|
E|---------------------------------------------------------------------------|
Verse
e|---------------------------------------------------------------------------|
B|---------------------------------------------------------------------------|
G|-12--10--------------------------------------------------------------------|
D|-12--10--------------------------------------------------------------------|
A|-10--8---------------------------------------------------------------------|
E|---------------------------------------------------------------------------|
Solo
e|---------------------------------------------------------------------------|
B|------------------17-17-17-15-12-------------------------------------------|
G|-10-12-14-15--17-----------------14-12-14-8-10------------10-9-7-5---------|
D|---------------------------------------------------------------------------|
A|---------------------------------------------------------------------------|
E|---------------------------------------------------------------------------|

Intro
Verse


e|----------------------12/13/14/13/12------------12----------17^------------|
B|-10---10-----12-10--------------------15-13-12-----13---12-----------------|
G|----9------9-------12------------------------------------------------------|
D|---------------------------------------------------------------------------|
A|---------------------------------------------------------------------------|
E|---------------------------------------------------------------------------|

Verse

Solo 3 
e|---------------------------------------------------------------------------|
B|-------------------------------------------12------------------------------|
G|-5-7-9-10-12-17-17-15-12-10-12/10---9-10-12---12-10-9-7--------------------|
D|---------------------------------------------------------------------------|
A|---------------------------------------------------------------------------|
E|---------------------------------------------------------------------------|

Rest is just built off the same scale pretty much ne thing you plays sounds good!
Tap to rate this tab
# A B C D E F G H I J K L M N O P Q R S T U V W X Y Z