Song name
# A B C D E F G H I J K L M N O P Q R S T U V W X Y Z

Buckcherry - You tab

Help us improve GuitareTab! Take a short survey!
Artist:BuckCherry
Title:You
Tabbed By:Kimberlain Watson


This is one of my fav. buckcherry songs 
Its Not Hard To Learn Pretty Easy

Enjoy

but first Here is the guitar tab for you on this site ok

E--------------------------------------------------------|
B------------------------------------------8/10-10/8-8---|
G--7/9/7---------------------------7-------7/9---9/7-7---|
D--7/9/7-------5--------------7h9-----7h9----------------|
A---------5h7-----7---7p5-7------------------------------|
E--------------------------------------------------------|
OK it Accurate but not really accurate ok but here is my version for the best song ever YOU

Intro/Verses:Guitar 1(clean electric)
E-----------------------------------------3/5/3---------|
B--3/5/3----------------------3-----------3/5/3---------|
G--2/4/2------0-----------2h4------2h4------------------|
D---------0h2-----2p0h2---------------------------------|
A-------------------------------------------------------|
E-------------------------------------------------------|
Intro/Verses:Guitar 2(acoustic)
E----0--------3--------------------|
B----1--------3--------------------|
G----2--------4--------------------|
D----2--------5--------------------|
A----0--------5--------------------|
E-------------3--------------------|

Pre-Chorus:Guitar 1
E---------------------------|
B---------------------------|
G---------------------------|
D--7h9--7--7-7h9------------|
A-----------------10--------|
E---------------------------|
Pre-Chorus:Guitar 2
E--3----3-------3-------3---3---3------------|
B--3------3---3---3---3---3---3---3----------|
G--4-----------------------------------------|
D--5-5------5-------5------------------------|
A--5-----------------------------------------|
E--3-----------------------------------------|
And The Chords For The Song
C             F                      G
And with the change and new test of faith

                    C
To help us through tomorrow

       F           Am         G
A condition of the love we made


Chorus:

                               C
Cause things wont change without you

                        Am
Forfeit the lies that maimed you

                                G
wanna dance with the lines and change things

                       F      G        C
But I can't do it without you   you you

Verse 2

Pre-Chorus


Bridge:

C          G
So take it easy girl

        Am
You're falling through the night

F          G
Your Mona Lisa eyes

     Am             G
Will comfort me the rest of my life


Chorus x2

SOLO
E----------------------------------------------17b--15~--|
B--15-15b--17p15---------15-15b--17p15-------------------|
G-----------------17-14-----------------17-14------------|
D--------------------------------------------------------|
A--------------------------------------------------------|
E--------------------------------------------------------|

-----------------------15---------------------|
--15-17-18-18---17-18------15b----------------|
--------------------------------14--17~-------|
----------------------------------------------|
----------------------------------------------|
----------------------------------------------|
   C
And when love is in your life

       Am
I will never say goodbye

    G
We stand alone tonight

    F            G
Without you  Without you

         C
And when love is in your life

       Am
I will never say goodbye

    G
We stand alone tonight

    F            G
Without you  Without you

Outro:

C       Am      G
You You You You You

    F
Without you

     G       C
Without You

And There is my tab for you not really hard to learn
Related for You tab