Song name
# A B C D E F G H I J K L M N O P Q R S T U V W X Y Z

Buckcherry - Related tab

Buckcherry:
Related
Buckcherry (album)

Intro

e|--10------------------------------------|
B|-8--10b-8--------12---------------------|
G|---------7~-7/9-9--11b-9----------------|
D|------------------------10-10p9-9\7-7\5-|
A|----------------------------------------|
E|----------------------------------------|

e|--10------------10b10b10b10b-8----------|
B|-8--10b-8-10--1-------------------------|
G|----------------------------------------|
D|----------------------------------------|
A|----------------------------------------|
E|----------------------------------------|

Verse
   G  D   E   C     G  D   E   C
e|----10--12--8--------10--12--8----------|
B|-8----------------8---------------------|
G|----------------------------------------|
D|----------------------------------------|
A|----------------------------------------| 
E|----------------------------------------|

SLIDE PICK DOWN NECK

e|----------------------------------------|
B|----------------------------------------|
G|----------77777777-99999999-555-53-5----|
D|-55555555-77777777-99999999-555-33-5----|
A|-55555555-55555555-77777777-333----3----|
E|-33333333-------------------------------|

REPEAT THEN GO TO CHORUS

e|----------------------------------------|
B|----------------------------------------|
G|-------999-555---------999-555----------|
D|-55555-999-555---55555-999-555----------|
A|-55555-777-333---55555-777-333----------|
E|-33333-----------33333------------------|

ENJOY!
Tap to rate this tab
# A B C D E F G H I J K L M N O P Q R S T U V W X Y Z