Song name
# A B C D E F G H I J K L M N O P Q R S T U V W X Y Z

Buckcherry - Borderline tab

----------------------------------------------------------------------------
	            Borderline - Buckcherry
----------------------------------------------------------------------------
Email:jerrocha2001@yahoo.com

Note: This tab is for only rhythm guitar. Pretty cool riff. Listen to the record to get the timing.     

Tuning:Standard

 Intro and verse main riff:
e|------------------------------------------------|
B|-------9-9---------9-9---------9-9-----9-9------|
G|-------9-9---------9-9---------9-9-----9-9------|
D|-9-----9-9---9-----9-9---9-----9-9-----9-9------|
A|-10h11-------10h11-------10h11------------------|
E|------------------------------------------------|

 Chorus:
e|-0------------4----------4------------5--5------|
B|-0------------4------------5----------5--5------|
G|-1------------5--------4--------------6--6------|
D|-2----------4--------6----------------7--7------|
A|-2--------6--------4-----------0------7--7------|
E|-0--2-3-4-----------------------------5--5------|

 Bridge:
e|-0--------4----4--4---4--4----4------5--5--5---5------|
B|-0--------4----4--4---5--5----5------5--5--5---5------|
G|-1--------5----5--5---4--4----4------6--6--6---6------|
D|-2--------4----4--4---6--6----6------7--7--7---7------|
A|-2--------6----6--6---4--4----4--0---7--7--7---7------|
E|-0--0-2-3-4--4-4--4------------------5--5--5---5---0--|

Tap to rate this tab
 
# A B C D E F G H I J K L M N O P Q R S T U V W X Y Z