Song name
# A B C D E F G H I J K L M N O P Q R S T U V W X Y Z

Buckcherry - Everything tab

-------------------------------------------------------------------------------
			     Everything - Buck Cherry
-------------------------------------------------------------------------------
Tabbed by: Joey Slue
Email: jtslue24@yahoo.com

*While using this tab to play this song, realize that I did not tab every note
 played in the song.  In actuality, what I did was tab all the main sections of
 the song, leaving some play for you.  This is a cool song to play because of the
 delay used in some parts, and the solos that are being played while Josh is 
 singing.  In essence, this should give you everything you need to play this song
 and, also, to play around with the solos a little yourself!  The key here is to 
 listen to the song for the timing and the way some parts are played.*

Tuning: Standard (EADGBE)

Intro (Fading in clean tone with delay)

e|--0--|
B|--2--|
G|-----|
D|-----|
A|-----|
E|-----|

Intro - Rhythm [0:03] (light distortion, palm muted)

e|-----------------------------------|
B|-----------------------------------|
G|--6-6-6---------2-2-2-2-4-4-4-4-4--|
D|--6-6-6-6-6-6-6-2-2-2-2-2-2-2-2-2--|
A|--4-4-4-6-6-6-6-0-0-0-0-2-2-2-2-2--|
E|--------4-4-4-4--------------------|

Intro - Lead (clean, with delay) 

This is the main lead played in the intro (and also sparatically throughout
the verse).  When you listen to the song, you will notice there sounds to
be much more going on here than I have indicated here, and this is correct.  
This which I have tabbed is the most prevelant, but there are changes that
I do not have indicated due to the difficulty of explanation through tablature.

e|--12-12-12-11--------------|  |--------12--|
B|--14-14-14-14--------------|  |------------|
G|---------------9h11-11-11--|  |-9-11-9-----|
D|---------------------------|  |------------|
A|---------------------------|  |------------|
E|---------------------------|  |------------|

Verse Riff I
  -Rhythm same as intro
  -Lead similar to intro, some changes in placement of notes/chords

Verse Riff II (begins with "...the look on her face, a waste of time...")
  -The second time through the riff, strum the final chord leading
   into the chorus.
e|-----------------------|
B|-----------------------|
G|--2-----------------4--|
D|--2--------2--------4--|
A|--0--------2--------2--|
E|-----------0-----------|

Chorus Riff I - Rhythm

e|--------------------------------------------------------|
B|--------------------------------------------------------|
G|--9--9-9--9-9--9-9--------------------------------------|
D|--9--9-9--9-9--9-9--9--9-9--9-9--9-9--7--7-7--7-7--7-7--|
A|--7--7-7--7-7--7-7--9--9-9--9-9--9-9--7--7-7--7-7--7-7--|
E|--------------------7--7-7--7-7--7-7--5--5-5--5-5--5-5--| cont'd...

e|--------------------|
B|--------------------|
G|--------------------|
D|--2--2-2--2-2--2-2--|
A|--2--2-2--2-2--2-2--|
E|--0--0-0--0-0--0-0--|

Chorus Riff II - Lead
  -This is the progression, listen to the song for the timing.
  -The first riff is played once, followed by the second riff being played three
   times, then the whole progression repeats.
e|---------------------------| |------------------|
B|---------------------------| |------------------|
G|--9---9/11-13-14-13-11-11--| |--9---9/11-13-14--|
D|---------------------------| |------------------|
A|--7---7/-9-11-12-11-9--9---| |--7---7/-9-11-12--|
E|---------------------------| |------------------|

Bridge/Breakdown - Rhythm

e|----------------------------------------------------------|
B|----------------------------------------------------------|
G|--------------------7--7-7--7-7--7-7----------------------|
D|--5--5-5--5-5--5-5--7--7-7--7-7--7-7--3--3-3--3-3--3-3----|
A|--5--5-5--5-5--5-5--5--5-5--5-5--5-5--3--3-3--3-3--3-3----|
E|--3--3-3--3-3--3-3--------------------1--1-1--1-1--1-1----|cont'd...

e|--------------------|
B|--------------------|
G|--5--5-5--5-5--5-5--|
D|--5--5-5--5-5--5-5--|
A|--3--3-3--3-3--3-3--|
E|--------------------|

Bridge/Breakdown - Lead (Solo)

e|---------------------------------------------------------------------------|
B|---------------------------------------------------------------------------|
G|---------------------------------------------------------------------------|
D|--9--9h10-12-10-9h10-12/14\12-12-10-9-7-5-5/7-9-7/9-12p10-10-12p10-9-10-12-|
A|---------------------------------------------------------------------------|
E|---------------------------------------------------------------------------|

e|---------------------------------------------------------------------------|
B|---------------------------------------------------------------------------|
G|--12-12-12--12-12-12-11-11h12-14-14-14-16p14-14-14/16-17-17/19\17--17/19-17|
D|---------------------------------------------------------------------------|
A|---------------------------------------------------------------------------|
E|---------------------------------------------------------------------------|

e|---------------------------------------------------------------------------|
B|---------17-17-17-17p15-15--15h17-17-17-17-17p15-15\13-13-13-13\12-12------|
G|--16-14---------------------------------------------------------------14-12|
D|---------------------------------------------------------------------------|
A|---------------------------------------------------------------------------|
E|---------------------------------------------------------------------------|

e|----------------------------|
B|----------------------------|
G|--12-14-12/14-16-14-12---9--|
D|----------------------------|
A|----------------------------|
E|----------------------------|

Intro - Rhythm
Intro - Lead (with slight variation)

Verse Riff II (Also, there is a second guitar playing the same chords palm muted
with what sounds like a wah-like distortion.)

Outro (Modified Chorus)

Rhythm

e|--------------------------------------------------------------------|
B|--------------------------------------------------------------------|
G|-11--11-11--11-11--11-11--------------------------------------------|
D|-11--11-11--11-11--11-11--11--11-11--11-11--11-11--9--9-9--9-9--9-9-|
A|--9---9--9---9--9---9--9--11--11-11--11-11--11-11--9--9-9--9-9--9-9-|
E|---------------------------9---9--9---9--9---9--9--7--7-7--7-7--7-7-|

e|-------------------|
B|-------------------|
G|-------------------|
D|--4--4-4--4-4--4-4-|
A|--4--4-4--4-4--4-4-|
E|--2--2-2--2-2--2-2-|

Lead (First 8 measures)

e|-----------------------------| |--------------------|
B|-----------------------------| |--------------------|
G|--11---11/13-15-16-15-13-13--| |--11---11/13-15-16--|
D|-----------------------------| |--------------------|
A|---9----9/11-13-14-13-11-11--| |---9----9/11-13-14--|
E|-----------------------------| |--------------------|

Lead (Last 8 measures)

e|-------------------------------------------------------------|
B|-----------11-12-14---------11-12-14b16b14---------11-12-----|
G|--11-11/13------------11-13------------------11-13-------11--|
D|-------------------------------------------------------------|
A|-------------------------------------------------------------|
E|-------------------------------------------------------------| x2

| /  slide up
| \  slide down
| h  hammer-on
| p  pull-off
| ~  vibrato
| +  harmonic
| x  Mute note
===============================================================================
Tap to rate this tab
# A B C D E F G H I J K L M N O P Q R S T U V W X Y Z