Guitaretab - guitar tabs
Song name
# A B C D E F G H I J K L M N O P Q R S T U V W X Y Z

Buckcherry - Sunshine tab

---------------------------------------------------------------------------
			     Sunshine - Buckcherry
----------------------------------------------------------------------------
Note: This song is really cool.  I couldn't find a tab anywhere on the internet so I 
it give it a shot on tabbing it.  Sounds okay too me though. Just read the lyrics below to 
what guitar rythm to play.  Listen to the song to figure out the timing.

Email:jerrocha2001@yahoo.com

Tuning: Open G Tuning

(Intro and Verse Guitar Rhythm)
D|-5--x-5-5---x--5---x--5-5-5-5-5-||
B|-5--x-6-6---x--6---x--6-6-6-6-5-||O
G|-5--x-5-5---x--5---x--5-5-5-5-5-||
D|-5--x-7-7---x--8---x--8-8-7-7-5-||
G|--------------------------------||O
D|--------------------------------||

(Pre-Chorus Guitar Rhythm-A)
D|----------------------------------------5---5---5-----------------------|
B|-8---8-8-8-8---10--10-10---10-10-10-----5-x-6-x-6-----------------------|
G|-8---8-8-8-8---10--10-10---10-10-10-----5-x-5-x-5---5--8p7-5------------|
D|-8---8-8-8-8---10--10-10---10-10-10-----5-x-7-x-8---5--8p7-5-8p7-5-7----|
G|-8---8-8-8-8---10--10-10---10-10-10--------------------------8p7-5-7----|
D|------------------------------------------------------------------------|

(Pre-Chorus Guitar Rhythm-B)
D|---------------------------------------5---5-5----5---5-5-5-5-5---|
B|-8---8-8-8-8---10--10-10-10--10-10-----5-x-6-6--x-6---6-6-6-6-5---|
G|-8---8-8-8-8---10--10-10-10--10-10-----5-x-5-5--x-5---5-5-5-5-5---|
D|-8---8-8-8-8---10--10-10-10--10-10-----5-x-7-7--x-8---8-8-7-7-5---|
G|-8---8-8-8-8---10--10-10-10--10-10--------------------------------|
D|------------------------------------------------------------------|

(Pre-Chorus Guitar Rhythm-B continued)
D|----------------------------------------5---5---5----------------------|
B|-8---8-8-8-8---10--10-10-10-10-10-------5-x-6-x-6----------------------|
G|-8---8-8-8-8---10--10-10-10-10-10-------5-x-5-x-5---5--8p7-5-----------|
D|-8---8-8-8-8---10--10-10-10-10-10-------5-x-7-x-8---5--8p7-5-8p7-5-----|
G|-8---8-8-8-8---10--10-10-10-10-10----------------------------8p7-5-----|
D|-----------------------------------------------------------------------|

(Chorus Guitar Rhythm)
D|---------------------------------------------------------------|
B|-0---0----0-------0--0---3--3---x--5--x--5--5--5--5--5-x-------|
G|-0---0----0-------0--0---3--3---x--5--x--5--5--5--5--5-x-------|
D|-0---0----0-------0--0---3--3---x--5--x--5--5--5--5--5-x-------|
G|-0---0--0-0---0---0--0---3--3---x--5--x--5--5--5--5--5-x-------|
D|---------------------------------------------------------------|
[ Tab from: http://www.guitaretab.com/b/buckcherry/166243.html ]
(Solo Guitar Rhythm)
D|-------------------------------|
B|-0-x--3-3--x--5--5-5--x--3--3--|
G|-0-x--3-3--x--5--5-5--x--3--3--|
D|-0-x--3-3--x--5--5-5--x--3--3--|X 3
G|-0-x--3-3--x--5--5-5--x--3--3--|
D|-------------------------------|

(Solo Guitar Rhythm Continued)
D|-------------------------------------------------------------------------|
B|-0-0-x--3--3-x--5--5-5--x--3--3--3--x--8-8--8--8-x--10-10-10-10-10-10-10-|
G|-0-0-x--3--3-x--5--5-5--x--3--3--3--x--8-8--8--8-x--10-10-10-10-10-10-10-|
D|-0-0-x--3--3-x--5--5-5--x--3--3--3--x--8-8--8--8-x--10-10-10-10-10-10-10-|
G|-0-0-x--3--3-x--5--5-5--x--3--3--3--x--8-8--8--8-x--10-10-10-10-10-10-10-|
D|-------------------------------------------------------------------------|

(Solo Guitar Rhythm Continued)
D|-------------------------------------------------------------------------|
B|-x-8-8--8--8-x--10-10-10-10-10-10-10-x-8-8--8--8-x--10-10-10-10-10-10-10-|
G|-x-8-8--8--8-x--10-10-10-10-10-10-10-x-8-8--8--8-x--10-10-10-10-10-10-10-|
D|-x-8-8--8--8-x--10-10-10-10-10-10-10-x-8-8--8--8-x--10-10-10-10-10-10-10-|
G|-x-8-8--8--8-x--10-10-10-10-10-10-10-x-8-8--8--8-x--10-10-10-10-10-10-10-|
D|-------------------------------------------------------------------------|

(Solo Guitar Rhythm Continued)
D|------------------------------------|
B|-x--7-7-7-7-7-7-7-7-7-7-7-7-7-7-7-x-|
G|-x--7-7-7-7-7-7-7-7-7-7-7-7-7-7-7-x-|
D|-x--7-7-7-7-7-7-7-7-7-7-7-7-7-7-7-x-|
G|-x--7-7-7-7-7-7-7-7-7-7-7-7-7-7-7-x-|
D|------------------------------------|

Sunshine

By Josh Todd

(INTRO/Verse Guitar Rhythm)
Playin with me baby will get you stung like a bee
You keep playing with me baby until Iím deep in between

(Pre Chorus Guitar Rhythm-A)
I know your never gonna agree, love life Rollercoaster

(Verse Guitar Rhythm)
You never let the sunshine you better take it from me
And every time you sun shines you make me week in the knees

(Pre Chorus Guitar Rhythm-B)
I know your never gonna agree, love life Rollercoaster
Your Mommaís never gonna believe, went to bed with a monster

(Chorus Guitar Rhytm)
Leave a light on cry tomorrow
And Iíll show up
Leave a light on cry tomorrow
And let your sunshine

(Verse Guitar Rhythm)
I bet you had a hard life, itís time to set you free
Crying with your green eyes, Iím sorry baby please

(Solo Guitar Rhythm)
(Verse Guitar Rhythm)
(Pre Chorus Guitar Rhythm)
(Chorus Guitar Rhythm)

Thanks for looking!!!  Hope this helps out to all guitar weilding Buckcherry fans!!


| /  slide up
| \  slide down
| h  hammer-on
| p  pull-off
| ~  vibrato
| +  harmonic
| x  Mute note
=========================================================================
Related for Sunshine tab