Song name
# A B C D E F G H I J K L M N O P Q R S T U V W X Y Z

Buckcherry - Everything tab

I've noticed that not many tabs exist for this song. So I decided
to create my own. With the help of "Godsmackkid1113", by this I
mean I used his tab for reference, I have spent a good solid hour
getting this as accurate as possible. It sounds perfect to my ears
but if you feel changing it works, than by all means change it to
your specifications. Also, check out my video "How To Play Everything
By Buckcherry W/ Solo" with the username "Riffer 16" to gain insight
on the rythm of the solo and rest of the song. A final word: This is
just the standard guitar, or main guitar heard. All other guitars are
unimportant unless you have the tab book for this song. Enough talk.
Learn and enjoy.

NOTE: TABBED BY EAR AND MAY NOT BE ENTIRELY ACCURATE.
THE HIGH E STRING IS DEPICTED AS "e". THE LOW E IS
DEPICTED AS "E".

Key/Legend:
p= Pull-Off
h= Hammer-On
/= Slide
()= Optional Note
x= Deaden
*= Footnote on tab
X#= Number of times to replay section
[]= Distortion on/off (optional)
//= Slide Down Neck
~ = Vibrato


    *Difficult to determine when to start playing at first. Be warned.

INTRO [off]
e|--------------------------------------|               X4
B|--------------------------------------|
G|--------------------------------------|
D|--6-6-6-------------------------------|
A|--4-4-4--6-6-6-6--7-7-7-7--9-9-9-9-9--|
E|---------4-4-4-4--5-5-5-5--7-7-7-7-7--|
    x x x  x x x x  x x x x  x x x x x

VERSE 1 [off]
e|--------------------------------------|               X4
B|--------------------------------------|
G|--------------------------------------|
D|--6-6-6-------------------------------|
A|--4-4-4--6-6-6-6--7-7-7-7--9-9-9-9-9--|
E|---------4-4-4-4--5-5-5-5--7-7-7-7-7--|
    x x x x x x x   x x x x  x x x x x

PRE-CHORUS 1 [on]           *Add more or less depending on preference.
e|---------------------------------|
B|---------------------------------|
G|---------------------------------|
D|---------------------------------|
A|--7--2--9---7--2--9--9999999999--|
E|--5--0--7---5--0--7--7777777777--|


CHORUS 1 [on]
e|--------------------------------------------------------------------------|
B|--------------------------------------------------------------------------|
G|--------------------------------------------------------------------------|
D|--9--999-999-999-99-------------------------------------------------------|
A|--7--777-777-777-77--9-999-999-999-99--7-777-777-777-77--2-222-222-222-22-|
E|---------------------7-777-777-777-77--5-555-555-555-55--0-000-000-000-00-|


VERSE 2 [off]
e|--------------------------------------|               X4
B|--------------------------------------|
G|--------------------------------------|
D|--6-6-6-------------------------------|
A|--4-4-4--6-6-6-6--7-7-7-7--9-9-9-9-9--|
E|---------4-4-4-4--5-5-5-5--7-7-7-7-7--|
    x x x  x x x x  x x x x  x x x x x


PRE-CHORUS 2 [on]      *Add more or less depending on preference.
e|--------------------------------|
B|--------------------------------|
G|--------------------------------|
D|--------------------------------|
A|--7--2--9---7--2--9-9999999999--|
E|--5--0--7---5--0--7-7777777777--|


CHORUS 2 [on]
e|-------------------------------------------------------------------------|
B|-------------------------------------------------------------------------|
G|-------------------------------------------------------------------------|
D|--9-999-999-999-99-------------------------------------------------------|
A|--7-777-777-777-77--9-999-999-999-99--7-777-777-777-77--2-222-222-222-22-|
E|--------------------7-777-777-777-77--5-555-555-555-55--0-000-000-000-00-|


CHORUS 3 [on]
e|-------------------------------------------------------------------------|
B|-------------------------------------------------------------------------|
G|-------------------------------------------------------------------------|
D|--9-999-999-999-99-------------------------------------------------------|
A|--7-777-777-777-77--9-999-999-999-99--7-777-777-777-77--2-222-222-222-22-|
E|--------------------7-777-777-777-77--5-555-555-555-55--0-000-000-000-00-|


SOLO [on]
e|------------------------------------------------------------|
B|------------------------------------------------------------|
G|----------4~-4h5-7--5p4-7--7h9p7-7(p5)-5p4-4p2--0-2-2h4-4b--|
D|------------------------------------------------------------|
A|------------------------------------------------------------|
E|--(12//)----------------------------------------------------|


SOLO (cont.) [on]
e|-----------------------------------|
B|-----------------------------------|
G|--4p2-2/4-4/5--7p5-5--5h7p5-4-5-7--|
D|-----------------------------------|
A|-----------------------------------|
E|-----------------------------------|


SOLO (cont.) [on]          *These are 12, not 1 and 2.
e|---------------------------------------------------------------|
B|---------------------------------------------------------------|
G|--/12121212~--12121212p11-11--11h12-14-(14)-(14)--14h16p14-14--|
D|---------------------------------------------------------------|
A|---------------------------------------------------------------|
E|---------------------------------------------------------------|
     "If I had everything would I..."

SOLO (cont.) [on]
e|--------------------------------------------------|
B|--------------------------------------------------|
G|--14-16h17--17h19p17-17--17h19p17-17p16-16p14-14--|
D|--------------------------------------------------|
A|--------------------------------------------------|
E|--------------------------------------------------|


SOLO (cont.) [on]     *Again, 17 not 1 and 7.
e|------------------------------------------------------------------------|
B|--/17-1717-17p15-1515--15h17-1717-171717-17p15--1515-15p13--1313-13p12--|
G|------------------------------------------------------------------------|
D|------------------------------------------------------------------------|
A|------------------------------------------------------------------------|
E|------------------------------------------------------------------------|
     "If I had everything would I..."

SOLO (cont.) [on]
e|--------------------------------------------|
B|--10-12p10--8-8h10-10--8h10-12--10p8-8--5~--|
G|--------------------------------------------|
D|--------------------------------------------|
A|--------------------------------------------|
E|--------------------------------------------|


VERSE 3
e|--------------------------------------|               X4
B|--------------------------------------|
G|--------------------------------------|
D|--6-6-6-------------------------------|
A|--4-4-4--6-6-6-6--7-7-7-7--9-9-9-9-9--|
E|---------4-4-4-4--5-5-5-5--7-7-7-7-7--|
    x x x  x x x x  x x x x  x x x x x

PRE-CHORUS 3         *Add more or less depending on preference.
e|---------------------------------------|
B|---------------------------------------|
G|---------------9-9/--------------------|
D|---------------9-9/--------------------|
A|--7--2--9--0-2-------7-2-9-9999999999--|
E|--5--0--7------------5-0-7-7777777777--|


CHORUS 4               X4          *Let last note ring out.
e|-------------------------------------------------------------------------|
B|-------------------------------------------------------------------------|
G|-------------------------------------------------------------------------|
D|--9-999-999-999-99-------------------------------------------------------|
A|--7-777-777-777-77--9-999-999-999-99--7-777-777-777-77--2-222-222-222-22-|
E|--------------------7-777-777-777-77--5-555-555-555-55--0-000-000-000-00-|



Please let me know of mistakes at:  riffer_16@yahoo.com
(Yes it's an underscore-space)
Tap to rate this tab
 
# A B C D E F G H I J K L M N O P Q R S T U V W X Y Z