Song name
# A B C D E F G H I J K L M N O P Q R S T U V W X Y Z

Buckcherry - Alone tab

This song is on the Mission Impossible soundtrack. This is my first tab so I hope it is alright.
Listen to the song for timing.
Main riff.

may use a little flange
--------------------------------------|
--------------------------------------|
--------------------------------------|
---5---5-4-5----5---------5-----4-3-1-|   3x
-3---3--------3---3-323-3---3-2-------|
--------------------------------------|

--3b   last time, slow bend


--------------------------------------|
--------------------------------------|
--------------------------------------|
-10-10-7-7-7-8-8-8-9-9-9-10-10-10-----|
-8---8-8-8-8-8-8-8-8-8-8-8--8--8------|
--------------------------------------|


--------------------------------------------------------|
--------------------------------------------------------|
--------------------------------------------------------|
-8-8-5-5-5-6-6-6-7-7-7-8-8-5-5-6-6-7-7-8-8-5-5-6-6-7-7--|
-6-6-6-6-6-6-6-6-6-6-6-6-6-6-6-6-6-6-6-6-6-6-6-6-6-6-6--|
--------------------------------------------------------|

---------------------------------------|
---------------------------------------|
10-9-8-7-6-3-5-------------------------|
10-9-8-7-6-3-5-------------------------|
8--7-6-5-4-1-3-------------------------|
---------------------------------------|
                                 wah pedal
--------------------------------------------------|
--------------------------------------------------|
-1010101010101010-88888888----12~~-10~~-12~~-10~~-|
--------------------------------------------------|
-8-8-8-8-8-8-8-8--66666666------------------------|
--------------------------------------------------|

some feedback noise from one guitar and other one plays

-----------------------------|
-----------------------------|
3-3-3------------------------|
3-3-3------------------------|
1-1-1------------------------|
-----------------------------|
Hope you enjoy this tab
Tap to rate this tab
 
# A B C D E F G H I J K L M N O P Q R S T U V W X Y Z