Song name
# A B C D E F G H I J K L M N O P Q R S T U V W X Y Z

Buckcherry - Out Of Line tab

Highlighted       Show chord diagrams
----------------------------------------------------------------------------
			     Out of Line - Buckcherry
----------------------------------------------------------------------------
Email:jerrocha2001@yahoo.com

Out of line

Intro: A-G-D-A chord progression

        A    G       G       D       A
 I will sacrifice, I promise I値l behave
            A      G             G          D         A
I値l keep my head high, I値l keep my foot out of the grave
  A           G                    G          D       A
I知 lucky I found you, you know you always speak the truth
        A         G    G       D       A
Cause in my past life baby I got screwed
          A      G         D
 And I知 still out of line
                 A
When it comes to you
         A      G        D  
And I知 still out of line
                       A
I keep trying to break through


Chorus Tab (hit the G note on "And")
e|--------------3------2----2----2---2----2------------|
B|-------2------3------3----3----3---3----3----2-------|o
G|-------2------0------2----2----2---2----2----2-------|
D|-------2------0------0----0----0---0----0----2-------|
A|-------0------2------------------------------0-------|o
E|-3-3----------3-----------------------------------3-3|

  





Tap to rate this tab
 
# A B C D E F G H I J K L M N O P Q R S T U V W X Y Z