Guitaretab - guitar tabs
Song name
# A B C D E F G H I J K L M N O P Q R S T U V W X Y Z

Buckcherry - Sorry tab

-------------------------------------------------------------------------------
			     Sorry (solo only) - Buckcherry
-------------------------------------------------------------------------------
Tabbed by:Allen Simpson
Email:

Tuning:Standard

e|--------------------------------------------------------------------------|
B|-----------------------------10-12-12b-15-12-12-10--------10-12-12-----10-|
G|-9br-7---7-------7-9b-9---11-----------------------11--11----------11-----|
D|-------9-------9----------------------------------------------------------|
A|--------------------------------------------------------------------------|
E|--------------------------------------------------------------------------|
[ Tab from: http://www.guitaretab.com/b/buckcherry/145145.html ]
e|--------------------------------------------------------------------------|
B|10-10-10----------------------------------------10-12-12b-15-12-12-10-----|
G|---------11-9b-7v-6v----7-7---7-----7-9b-9---11-----------------------11--|
D|----------------------9-----9-----9---------------------------------------|
A|--------------------------------------------------------------------------|
E|--------------------------------------------------------------------------|

e|--------------------------------------------------------------------------|
B|---10-12-17b-17-15--------------------------------------------------------|
G|11-----------------16br-14v-----------------------------------------------|
D|--------------------------------------------------------------------------|
A|--------------------------------------------------------------------------|
E|--------------------------------------------------------------------------|


    Thats it! thanks guys

| b  bend
| /  slide up
| \  slide down
| h  hammer-on
| p  pull-off
| v  vibrato
| +  harmonic
| x  Mute note
| br bend then release
===============================================================================
Related for Sorry tab
Sorry chords by Buckcherry