Song name
# A B C D E F G H I J K L M N O P Q R S T U V W X Y Z

Buckcherry - Pump It Up tab

Only the first few bits that I have ear transcribed...
Any corrections or additional tabbing would be appreciated.

Standard Tuning:

-------------------------0--------|
---------------------------0------|
-----------------------------3----|
----4-----------------------------|   (x2) (on each time through there are
----4-----------------------------|         some small notes i havn't been
----2-----------------------------|         able to tab)
(let ring)

[slide up neck just before]
---------------------|
---------------------|
---------------------|
----3-3-5-5-6-6-7----|
----3-3-5-5-6-6-7----|
----1-1-3-3-4-4-5----|


---------------------|
---------------------|
---------------------|
----9---9---9-8-7----|
----9---9---9-8-7----|   (x4)   (repeated through numerous ares of song)
----7---7---7-6-5----|
Tap to rate this tab
 
# A B C D E F G H I J K L M N O P Q R S T U V W X Y Z