Song name
# A B C D E F G H I J K L M N O P Q R S T U V W X Y Z

Buckethead - Acoustic Medley tab

                              ¨Buckethead¨


                            *Acoustic Medley*

                            A.K.A Greensleeves


                      played on 'Young Buckethead vol.2'

http://www.youtube.com/watch?v=4sdDqosGikA  my cover


The tuning for this song is weird.
Buckethead's guitar was tuned between Standard and half a step!
But Eb will sound good 2 :)


---------------0--2p0----------------------------------------------|
---------1--3--1--------3--0----------0-1--------------0-----------|
-----2---2---------------------0----2---------2--2-0h2---0---------|
-------------------------------2----------------------------2------|
----------------------------------------0--------------------------|
-------------------------------------------------0-----0-----------|

-----------0--2-0----------------------------------|
------1-3--1-------3-0-------0-1-------------------|
---2--2----2------------0--2-------2-0----2~-------|
------------------------2----------------2---------|
--------------------------------0------------------|
---------------------------------------------------|


---3-3--2-0----------------------------------------------|
---0-0-------3--0------0-1--------------0----------------|
---0-0-------------0-2-------2-2--0h2------0-------------|
---------------------------------------------2-----------|
-------------------------0-------------------------------|
---3-3-------3------------------0------------------------|


---3-3--2-0----------------------------------------------|
---0-0-------3--0------0-1-------------------------------|
---0-0-------------0-2-------2-2----2~-------------------|
-----------------------------------2---------------------|
-------------------------0-------------------------------|
---3-3-------3-----------------0-------------------------|

go back to intro :)

RATE AND COMMENT!!
Tap to rate this tab
# A B C D E F G H I J K L M N O P Q R S T U V W X Y Z