Guitaretab - guitar tabs
Song name
# A B C D E F G H I J K L M N O P Q R S T U V W X Y Z

Buckethead - Bloodless tab

 Bloodless by Buckethead
Tuning: Standard
This is my 1st tab. PLEASE LEAVE COMMENTS!!!

 |----------------------------------------------------|
*|----------------------------------------------------|
 |----------------------------------------------------|
 |----------------------------------------------------| X5
*|--------4----------2---4----------5----------7---5--|
 |--2-2-2----2-2-2-2----------0-0-0----0-0-0-0--------|

 |-------------------------------------------------|    
*|-------------------------------------------------|
 |-------------------------------------------------| X4
 |-------------------------------------------------|
*|-----------------------17---------17------17-----|
 |--0h2----2---15----15--15---------15------15-----|

 |-------------------------|   |---------------------------|
*|-------------------------|*  |---------8~----------------|
 |-------------------------| X4|---------7~----------------|
 |--4-----------------4----|   |---------5~----------------|
*|-------------------------|*  |---------------------------|
 |----2----2-5-4----2---2--|   |---------------------------|

 |-------------------------|   |---------------------------|
*|-------------------------|*  |---------8~----------------|
 |-------------------------| X4|---------7~----------------|
 |--4-----------------4----|   |---------5~----------------|
*|-------------------------|*  |---------------------------|
 |----2----2-5-4----2---2--|   |---------------------------|

|--14-0-14-0-9-0-9-0-5-0-5-0-5-0-5-0-14-0-14-0-9-0-9-0-5-0-7-0-10-0-9-|
|---------------------------------------------------------------------|
|---------------------------------------------------------------------|
|---------------------------------------------------------------------|
|---------------------------------------------------------------------|
|---------------------------------------------------------------------|

 |---------------------------------------------------|
*|---------------------------------------------------|*
 |--------------2-------------------------2----------| X4
 |----------2-4---4--2------------------2---4--------|
*|--2--4---------------4--2-----------4--------4-2-4-|*
 |--------------------------5-----4-5----------------|

 |----------------------------------------------------|
*|----------------------------------------------------|*
 |----------------------------------------------------| X4
 |----------------------------------------------------|
*|--------4----------2---4----------5----------7---5--|*
 |--2-2-2----2-2-2-2----------0-0-0----0-0-0-0--------|

 |-------------------------------------------------|   
*|-------------------------------------------------|*
 |-------------------------------------------------| X4
 |-------------------------------------------------|
*|-----------------------17---------17------17-----|*
 |--0h2----2---15----15--15---------15------15-----|


Thats pretty much it. Let me know if i can fix ANY part of it. THANX!!!
 |------------------------------------------------------------|
*|--------------10------10---------------------5--6--5--------|
 |----------12------12------12--------------7-----------7-----|
 |------12----------------------12-------7-----------------7--|
*|--10--------------------------------5-----------------------|
 |------------------------------------------------------------|
[ Tab from: http://www.guitaretab.com/b/buckethead/161895.html ]
|---------------------------------------------------------------|
|-------------8------8-----------------------8------8-----------|*
|---------10-----10-----10---------------10-----10-----10-------| X4
|-----10--------------------10-------10--------------------10---|
|--8------------------------------8-----------------------------|*
|---------------------------------------------------------------|

 |---------------------------------------------------------|
*|---------------------------------------------------------|*
 |--9p7/5h7--10-10-10----------9p7/5h7--10-10-10-10-10-10-| X4
 |--7-7/5h7---7--7--7-----------7-7/5h7---7--7--7--7--77--|
*|---------------------------------------------------------|*
 |---------------------------------------------------------|

 |----------------------------------------------------|
*|----------------------------------------------------|
 |--9--7--9-----4--5--7--9----7--5--4--5--9--7--9-----|
 |--7--7--7-----4--5--7--9----7--5--4--5--7--7--7-----|
*|----------------------------------------------------|
 |----------------------------------------------------|

|---------------------------|    
|---------------------------|*  
|--4--5--7--9--7--5--4--5---| X4 
|--5--5--5--5--5--5--5--5---|    
|---------------------------|*  
|---------------------------|    

 |------------------------------------------------|
*|------------------------------------------------|*
 |--9-7-9---10-9-10---12--10--9--10--9-----7------| X3
 |--7-7-9----7-7--7----7---7--7---7--7-----7------|
*|------------------------------------------------|*
 |------------------------------------------------|

 |---3p--1-----1h--3-----6p--5--|
*|------------------------------|
 |----------0---------0---------|
 |------------------------------|
*|------------------------------|
 |------------------------------|

|-----5h--6-----10h--13-----13h----10-----8p--6-----6p--5------|
|--------------------------------------------------------------|*
|--0---------0-----------0-------------0---------0---------0---| X4
|--------------------------------------------------------------|
|--------------------------------------------------------------|*
|--------------------------------------------------------------|

 |----------------------------------------------------------|
*|----------------------------------------------------------|*
 |----------------------------------------------------------| X4
 |----5--5--5--3--5----8-------------7--7--7--5--7----10----|
*|----3--3--3--1--3----6-------------5--5--5--3--5-----8----|*
 |----------------------------------------------------------|

 |-------------------------------|
*|-------------------------------|
 |-------------------------------|
 |--4--------------4----------4--|
*|-------------------------------|
 |-----2-2-2-2-2-2----2-2-2-2----|

|---------------------------------------------------------------|
|---------------------------------------------------------------|
|---------------------------------------------------------------|
|----------4-4-----5------5------4---------------4-----------4--|
|---------------------------------------------------------------|
|--2-2-2-2-----2-2----2-2----2-2------2-2-2-2-2-2----2-2-2-2----|

|--------------------------------|
|--------------------------------|*
|--------------------------------| X4
|----------4-4-------------------|
|------------------4------4------|*
|--2-2-2-2-----2-2----2-2----2-2-|

Related for Bloodless tab