Song name
# A B C D E F G H I J K L M N O P Q R S T U V W X Y Z

Buckethead - Lebron tab

Help us improve GuitareTab! Take a short survey!
                     "Slaughter House on the Prairie"
                              "Buckethead"
                                "LeBron"

                         Tabbed By Daniel Strain
                     Email danielstrain57@yahoo.com

 Lead Guitar
|--14--12--------------------------------------------------------|
|--------15-14-14-15--------------14-15-14--------12-------------|
|--------------------14-14-11-14------------11-14----14-12-11----|
|----------------------------------------------------------------|
|----------------------------------------------------------------|
|----------------------------------------------------------------|

|--14--12--------------------------------------------------------|
|--------15-14-14-15-14-12--------12---12h14-14-15-17--15-14-15--|
|---------------------------11h14------------------------------14|
|----------------------------------------------------------------|
|----------------------------------------------------------------|
|----------------------------------------------------------------|
 I know I got lazy on the intro sorry I will update it later I promise
 other than that everything is here don't fret :O
|---------------------------------------------------------------|
|--------------------------12-----------------------------------|
|-14-11-11h12p11------11-14-------------------------------------|
|---------------12--12------------------------------------------|
|---------------------------------------------------------------|
|---------------------------------------------------------------|

|----------------------------------------------------------------|
|---------------------------------------------------15b----------|
|------------------------------------------------------16--------|
|----------------------------------------------------------------|
|----------------------------------------------------------------|
|----------------------------------------------------------------|

Use Kill Switch
|------------------------------|
|------------------------------|
|------------------------------|X2
|--------------------------7---|
|----------------------5-5-----|
|-7-7-7-7-7-7-7-7-7-7----------|

|-----------14b--------------------------------14b----------------------|
|-19-15-17-----14-15~-----------------19-15-17----14-15~----------------|
|-----------------------16--16-14--------------------------16-16-14-16--|
|-----------------------------------------------------------------------|
|-----------------------------------------------------------------------|
|-----------------------------------------------------------------------|

 55 Seconds
|------------------------------------------------------------------------|
|----------------------------------------15--17--15--14--15--------------|
|----------------------------14--16--18----------------------14----------|
|---------------14--16--17---------------------------------------16------|
|--14--16--17------------------------------------------------------------|
|------------------------------------------------------------------------|

|---------------------------------------------------------------|
|---------------------------------------------------------------|
|---------------------------------------------------------------|
|--------------------------5-----------------------------4------|X2
|--9p5---9p5---9p5---9h5--------7p4---7p4----7p4---7p4----------|
|------7-----7-----7-----7----------5-----5------5-----5--------|

|--------------|
|--------------|
|--------------|
|--------------|
|-5p2--2h4-5~--|
|----3---------|


|----------------------------------------------------------------|
|----------------------------------------------------------------|
|----------------------------------------------------------------|X2
|---7--7--7--7--5-5-5-5---7--7--7--7--5-5-5-5--------------------|
|---8--8--8--8--7-8-7-8---8--8--8--8--7-8-7-8--7-8-7-8-5-7-5-7---|
|--10-10-10-10--8-8-8-8--10-10-10-10--8-8-8-8--5-5-5-5-3-3-3-3---|

|-----------------------------------|
|-----------------------------------|
|-----------------------------------|
|--8---8-10-12----------------------|
|--8---8-10-12------8----------8----|
|--6---6-8--10--8h10--10--8h10--10--|

|---------------------------------------------|
|---------------------------------------------|
|---------------------------------------------|
|--8---8-10-12---10h12p10----------8----------|X2
|--8---8-10-12------------12p10h12---12-------|
|--6---6-8--10--------------------------------|

|----------------------------------------|
|----------------------------------------|
|----------------------------------------|
|--------------------5555555588887777----|
|---5555555588887777---------------------|
|----------------------------------------|

 1.52  This is my favorite part : )
|-----------3-2------------3-2------------2-3-------------5-5----|
|-----------3-3------------3-3------------3-3-------------3-3----|
|--4--4-----0-0-----4--4---0-0-----4--4---0-0------4--4---0-0----|X2
|--4--4-----4-4-----4--4---4-4-----4--4---4-4------4--4---4-4----|
|--2--2-------------2--2-----------2--2------------2--2---5-5----|
|----------------------------------------------------------------|

Use Kill switch
|------------------------------|
|------------------------------|
|------------------------------|X2
|--------------------------7---|
|----------------------5-5-----|
|-7-7-7-7-7-7-7-7-7-7----------|


|------------------------------|
|------------------------------|
|-44444444--7-7----------------|X6
|-44444444--7-7----------------|
|-22222222--5-5----------------|
|------------------------------|


|--------------------------------------------------3-3-3-2-2-2-----|
|-----------------3-3-3-2-2-2----------------------------------3-3-|
|---------2-2-4-4-------------2-2----------2-2-4-4-----------------|
|-----4-4------------------------------4-4-------------------------|
|-2-2------------------------------2-2-----------------------------|
|------------------------------------------------------------------|


|--------------------------|
|--------------------------|
|--------------------------|X4
|----4-0-------------------|
|--2-----2---0-5-0---------|
|----------3---------------|

|-----------3-2------------3-2------------2-3-------------5-5----|
|-----------3-3------------3-3------------3-3-------------3-3----|
|--4--4-----0-0-----4--4---0-0-----4--4---0-0------4--4---0-0----|X2
|--4--4-----4-4-----4--4---4-4-----4--4---4-4------4--4---4-4----|
|--2--2-------------2--2-----------2--2------------2--2---5-5----|
|----------------------------------------------------------------|

Rhythm Guitar this is what goes behind a lot of the song I'm sorry
I just couldn't put them over lapped so you know were it played it
really wouldn't be to hard to figure out : )
|----------------------------------------------------------------|
|----------------------------------------------------------------|
|----------------------------------------------------------------|
|----------------------------------------------------------------|
|--9-------------12---------------7---------------5--------------|
|--7-------------10---------------5---------------3--------------|

|----------------------------------------------------------------|
|----------------------------------------------------------------|
|----------------------------------------------------------------|
|----------------------------------------------------------------|
|---5--4--5--7---------------------------------------------------|
|---3--2--3--5---------------------------------------------------|

|----------------------------------------------------------------|
|----------------------------------------------------------------|
|----------------------------------------------------------------|
|----------------------------------6-7-9-7-----------------------|
|--9----7----4-5-7-5-4---9----7----4-5-7-5-----------------------|
|--7----5----2-3-5-3-2---7----5----------------------------------|

This took some time I realize that I didn't finish the intro but I will get to it soon! 
you want to tab the intro and send it to me I will be glad to add your name to this as 
I will revise this just thought you guys would what to know how to play this one!
Related for Lebron tab