Song name
# A B C D E F G H I J K L M N O P Q R S T U V W X Y Z

Buckethead - Power Rangers Theme tab

This is my Forth time tabbing a song, so please bear
          with me. I don't know who wrote this, but it sounds
          a lot like Eruption, doesn't it? It probably isn't
          100% correct, but it sounds pretty close.


      Opening Rhythm


E  +--------------------------------------------------------+
B  |--------------------------------------------------------|
G  |-----9-----9-----9------9---9/10------------------------|
D  |-----9-----9-----9------9---9/10------------------------|
A  |-----7-----7-----7------7---7/8-------------------------|
E  +-0-0---0-0---0-0----0-0---------------------------------+


  Tapping sequence

E  +--------------------------------------------------------+
B  |--------------------------------------------------------|
G  |-t12p9p5-t12p9p5-t12p9p5-t12p9p5--t14p11p7-t14p11p7-----|
D  |--------------------------------------------------------|
A  |--------------------------------------------------------|
E  +--------------------------------------------------------+



E  +--------------------------------------------------------+
B  |--------------------t12p7p4-t12p7p4-t12p7p4-t12p7p4-----|
G  |-t14p11p7-t14p11p7--------------------------------------|
D  |--------------------------------------------------------|
A  |--------------------------------------------------------|
E  +--------------------------------------------------------+


E  +--------------------------------------------------------+
B  |-t12p9p5-t12p9p5-t12p9p5-t12p9p5-t13p8p5-t13p8p5--------|
G  |--------------------------------------------------------|
D  |--------------------------------------------------------|
A  |--------------------------------------------------------|
E  +--------------------------------------------------------+


E  +--------------------------------------------------------+
B  |-t13p8p5-t13p8p5-t13p8p5-t13p8p5-t13p8p5-t13p8p5--------|
G  |--------------------------------------------------------|
D  |--------------------------------------------------------|
A  |--------------------------------------------------------|
E  +--------------------------------------------------------+


E  +--------------------------------------------------------+
B  |-12(let ring)-------------------------------------------]
G  |--------------------------------------------------------|
D  |--------------------------------------------------------|
A  |--------------------------------------------------------|
E  +--------------------------------------------------------+


      Main Theme


E  +---------19-17-------------------19-17------------------+
B  |------17-------19-20----------17-------20-19------------|
G  |--------------------------------------------------------|
D  |--------------------------------------------------------|
A  |--------------------------------------------------------|
E  +-0----------------------0-------------------------------+


That's all

Tap to rate this tab
 
# A B C D E F G H I J K L M N O P Q R S T U V W X Y Z