Song name
# A B C D E F G H I J K L M N O P Q R S T U V W X Y Z

Buckethead - Carpal Tunnel Slug tab

------------------------------------------
Intro to: Carpal Tunnel Slug by Buckethead
------------------------------------------
If you have any comments...apg213@hotmail.com. I don't check it often, and please no 
mail. I'm pretty sure this is fairly accurate. This is my first tab so cut me some slack, eh?


Half Step Down (Eb Ab Db Gb Bb eb)

Riff 1

eb||---13-13-13-12-12-12-----------------------|
Bb||---------------------13-13-13-11-11-10-10--|
Gb||-O-----------------------------------------|
Db||-O-----------------------------------------|
Ab||-------------------------------------------|
Eb||-------------------------------------------|

e|--------------------------------------|
B|--------------------------------------|
G|--------------------------------------|
D|--5/7--7--7--x------------------------|
A|--3/5--5--5--x--x--3--x--x--8--7------|
E|----------------x--1--x--x--6--5------|

e|-----------------------------------------|
B|-10101011111113131311111010--|
G|-----------------------------------------|
D|-----------------------------------------|
A|-----------------------------------------|
E|-----------------------------------------|
									x3
e|------------------------------------------||
B|------------------------------------------||
G|----------------------------------------O-||
D|--5/7--7--7/10-10-10\9--9--9\5--5--5----O-||
A|--3/5--5--5/8--8---8\7--7--7\3--3--3------||
E|------------------------------------------||


Riff 2
						                           X4
e||----------------------|-------------------------------||
B||----------------------|-------------------------------||
G||-O--------------------|-----------5-----------------O-||
D||-O-------3-5-5b7-5-3--|-----3h5/7--7-5-7-5-3--------O-||
A||----5--5------------5-|-3-3------------------3--------||
E||----------------------|-------------------------------||

Riff 1 x3

Riff 2 x4


Legend:

| / slide up
| \ slide down
| b bend
| h hammer on
| x muted note
Tap to rate this tab
# A B C D E F G H I J K L M N O P Q R S T U V W X Y Z