Song name
# A B C D E F G H I J K L M N O P Q R S T U V W X Y Z

Buckethead - Wishing Well tab

                                  **********************
                                  *    WISHING WELL    *
                                  **********************


Figure 1
0:00-0:20
e---5-5-5-5---0-----15--14----------5-5-5-5---0----15-15s17--14-15-14-12-12----|
B---3-3-3-3---0------------15--12---3-3-3-3---0--------------------------------|
G---0-0-0-0---0---------------------0-0-0-0---0--------------------------------|
D---4-4-4-4---2---------------------4-4-4-4---2--------------------------------|
A---5-5-5-5---3---------------------5-5-5-5---3--------------------------------|
E---0-0-0-0---0---------------------0-0-0-0---0--------------------------------|

Figure 2
0:21-0:38
e---0-0-0-0-0-0-0-0-0-0-0--0-000-0--00000--0----0-0-0-0-0-0-0-0-0-0--0--000-0--00000-0---|
B---8-8-8-8-7-7-7-7-0-0-0--0-000-0--00000--0----8-8-8-8-7-7-7-7-5-5--5--555-5--55555-5---|
G---0-0-0-0-0-0-0-0-0-0-0--0-000-0--00000--0----0-0-0-0-0-0-0-0-0-0--0--000-0--00000-0---|
D---x-x-x-x-x-x-x-x-7-7-9--9-999-9--99999--9----x-x-x-x-x-x-x-x-0-0--0--000-0--00000-0---|
A---7-7-7-7-7-7-7-7-7-7-7--7-777-7--77777--7----7-7-7-7-7-7-7-7-3-3--3--333-3--33333-3---|
E---0-0-0-0-0-0-0-0-0-0-0--0-000-0--00000--0----0-0-0-0-0-0-0-0--------------------------|

Figure 3
0:39-0:57
e---2--2--2--22--3---333--33--33-3-------------------------|
B---0--0--0--00--3---333--33--33-3-------------------------|
G---0--0--0--00--0---000--00--00-0-------------------------|
D---0--0--0--00--2---222--22--22-2-------------------------|
A---2--2--2--22--3---333--33--33-3-------------------------|
E----------------------------------------------------------|


Figure 4
0:58-1:06
e---222----223----332----000-------------------------------------------|
B---333----333----333----333-------------------------------------------|
G---000----000----000----000-------------------------------------------|
D---000----000----000----000-------------------------------------------|
A---333----333----333----333-------------------------------------------|
E----------------------------------------------------------------------|

          This is that lead thats played on top of fig 2
e-----------------------------------------------------------------------------|
B-----------------------------------------------------------------------------|
G---9--7--9----------------------------------9--7--9--------------------------|
D-----------9---9h10---------------9-----------------9---9h10-----------------|
A--------------------10-------5h7-----------------------------9---------------|
E-----------------------------------------------------------------------------|

           This is the lead that plays over fig 3 around the 39 second mark

e----14-----15-----17--15p14-14--14h15-------------14h15p14---15s17--15-15-----17--15-14-14h15---|
B12-----------12--------------------15--------12--------------------------12-------------------15|
G------------------------------------------------------------------------------------------------|
D------------------------------------------------------------------------------------------------|
A------------------------------------------------------------------------------------------------|
E------------------------------------------------------------------------------------------------|
Tap to rate this tab
# A B C D E F G H I J K L M N O P Q R S T U V W X Y Z