Song name
# A B C D E F G H I J K L M N O P Q R S T U V W X Y Z

Buckethead - One Foot In Front Of The Other tab

-------------------------------------------------------------------------------
                     One Foot in Front of the Other - Buckethead
-------------------------------------------------------------------------------
Great song off the Hollowed Out (Pike 37) album.

Tabbed by: edbert
email: mlap5150@gmail.com

Tuning: Standard


e|---------------------------------------------------------------------------|
B|---------------------------------------------------------------------------|
G|---------------------------------------------------------------------------|
D|---5-------------4---------------------------------------------------------|
A|-5---7---------5---5-------------------------------------------------------|
E|---------------------------------------------------------------------------|
x4


e|---------------------------------------------------------------------------|
B|---------------------------------------------------------------------------|
G|---------------------------------------------------------------------------|
D|---5------------------------4----------------------------------------------|
A|-5---7--------------------5---5--------------------------------------------|
E|---------0-0-0--0-0-0------------0-0-0--0-0-0------------------------------|
x2


e|---------------------------------------------------------------------------|
B|---------------------------------------------------------------------------|
G|------------------0------0-------------------------------------------------|
D|---4-5-4--------0------0---------------------------------------------------|
A|-5--------5--2------3------------------------------------------------------|
E|---------------------------------------------------------------------------|
x8


e|-2-2-2-2---3---------2-2-2-2---5-5-5--3------------------------------------|
B|-2-2-2-2---3---------2-2-2-2---5-5-5--3------------------------------------|
G|-4-4-4-4---7---------4-4-4-4---9-9-9--7------------------------------------|
D|-4-4-4-4---5---------4-4-4-4---7-7-7--5------------------------------------|
A|-2-2-2-2---3---------2-2-2-2---5-5-5--3------------------------------------|
E|---------------------------------------------------------------------------|
x4


e|-0--------0----------------------0-----------------------------------------|
B|-0--------1----------------------0-----------------------------------------|
G|-0--------0----------------------0-----------------------------------------|
D|-0--------2----------------------0-----------------------------------------|
A|-2--------3--------2-2-----------2-----------------------------------------|
E|-0--------0--------0-0-----------0-----------------------------------------|


e|---------------------------------------------------------------------------|
B|---------------------------------------------------------------------------|
G|-9-------------------------------------------------------------------------|
D|-----5---7-------7-------9-------------------------------------------------|
A|---7---7---7-5-7---7-5-7---7-5-7-------------------------------------------|
E|---------------------------------------------------------------------------|
x2

e|---------------------------------------------------------------------------|
B|---------------------------------------------------------------------------|
G|-7-------------------------------------------------------------------------|
D|-----5---7-------5-------7-------------------------------------------------|
A|---5---5---5-5-5---5-5-5---5-5-5-------------------------------------------|
E|---------------------------------------------------------------------------|

e|---------------------------------------------------------------------------|
B|---------------------------------------------------------------------------|
G|-9-------------------------------------------------------------------------|
D|-----5---7-------7-------9-------------------------------------------------|
A|---7---7---7-5-7---7-5-7---7-5-7-------------------------------------------|
E|---------------------------------------------------------------------------|
x2

e|---------------------------------------------------------------------------|
B|---------------------------------------------------------------------------|
G|-5-------------------------------------------------------------------------|
D|-----5---5-------4-------5-------------------------------------------------|
A|---5---5---5-5-5---5-5-5---5-5-5-------------------------------------------|
E|---------------------------------------------------------------------------|
x2

e|---------------------------------------------------------------------------|
B|---------------------------------------------------------------------------|
G|-9-------------------------------------------------------------------------|
D|-----5---7-------7-------9-------------------------------------------------|
A|---7---7---7-5-7---7-5-7---7-5-7-------------------------------------------|
E|---------------------------------------------------------------------------|


e|---------------------------------------------------------------------------|
B|---------------------------------------------------------------------------|
G|---------------------------------------------------------------------------|
D|-----0---------------------------------------------------------------------|
A|---0-----------------------------------------------------------------------|
E|-3-----2b (bend up slightly)-----------------------------------------------|
x3


e|-------------------------------(0)-----------------------------------------|
B|-------------------------------(0)-----------------------------------------|
G|------------(5)----------------(5)-----------------------------------------|
D|--------7----5----7----5--5------------------------------------------------|
A|--------5----5----5----5--3------------------------------------------------|
E|-0-0--0----0----0----0-----------------------------------------------------|
x4 *notes in () not played during the 1st repetition of this riff


e|---------------5-----5-------------------0---------------------------------|
B|------------------5-------------------3------------------------------------|
G|----------5----------------------------------------------------------------|
D|-9\7/9----3-------------9\7/9----5-----------------------------------------|
A|-7\5/7------------------7\5/7----3-----------------------------------------|
E|---------------------------------------------------------------------------|
x4


e|---------------------------------------------------------------------------|
B|---------------------------------------------------------------------------|
G|------------------0------0-------------------------------------------------|
D|---4-5-4--------0------0---------------------------------------------------|
A|-5--------5--2------3------------------------------------------------------|
E|---------------------------------------------------------------------------|
x4


e|---------------------------------------------------------------------------|
B|---------------------------------------------------------------------------|
G|-9-9-9-7-------------------------------------------------------------------|
D|-9-9-9-7-------------------------------------------------------------------|
A|-7-7-7-5-------------------------------------------------------------------|
E|-------------5-5-5--3-3-3--------------------------------------------------|
x3

************************************

| /   slide up
| \   slide down
| h   hammer-on
| p   pull-off
| ~   vibrato
| +   harmonic
| x   Mute note
| b   Bend
| pb  Pre-bend
| br  Bend release
| pbr Pre-bend release
| brb Bend release bend

************************************
Tap to rate this tab
 
# A B C D E F G H I J K L M N O P Q R S T U V W X Y Z