Song name
# A B C D E F G H I J K L M N O P Q R S T U V W X Y Z

Buckethead - Shadows tab

Tuning (high to low): eBGDAE

e||----------------------------0------------------------------||
B||---0------0--------------3-------------1-------------------||
G||2----2-------2----------------------------0------0---------||
D||2------2-------------5-------------3--------3------3-------||
A||0---------------5--5---5------3--3---3---------3-------2-3-||
E||----------------3-------------1----------------------3-----||

Intro (as tabbed by Justin Binge Buddy - nice one Justin ;))
e||----------------------------0------------------------------||
B||---0------0--------------3-------------1-------------------||
G||2----2-------2----------------------------0------0---------||
D||2------2-------------5-------------3--------3------3-------||
A||0---------------5--5---5------3--3---3---------3-------2-3-||
E||----------------3-------------1----------------------3-----||
This is also played x4 for the chorus

Verse
e---------------------------|
B---------------------------|
G-2-x-2-2-x-2--2-2-2--------|
D-2-x-2-2-x-2--2-2-2--------|
A-0-x-0-0-x-0--0-0-0---2-3--|
E--------------------3------|

e------------------------------------------------------|
B------------------------------------------------------|
G------------------------------------------------------|
D-5-x-5-5-x-5--5-5-5--------3-x-3-3-x-3--3-3-3---------|
A-5-x-5-5-x-5--5-5-5---2-3--3-x-3-3-x-3--3-3-3---2-3---|
E-3-x-3-3-x-3--3-3-3-3------1-x-1-1-x-1--1-1-1-3-------|

First part:
e--------------------------------------------|
B--------------------------------------------|
G--------------------------------------------|
D-7-----7-5-7-----7-5-7-----7-5-7-----7~-----|
A-7-----7-5-7-----7-5-7-----7-5-7-----7~-----|
E-5-----5-3-5-----5-3-5-----5-3-5-----5~-----|

e-----------------------------------------------------------------|
B-----------------------------------------------------------------|
G--2-x-2-x-x-2-2--------------------------------------------------|
D--2-x-2-x-x-2-2--5-x-5-x-x-5-5--3--3-3-3-3-3-3-3---3-3-3-3-3-3-5-|
A--0-x-0-x-x-0-0--5-x-5-x-x-5-5--3--3-3-3-3-3-3-3---3-3-3-3-3-3-5-|
E-----------------3-x-3-x-x-3-3--1--1-1-1-1-1-1-1---1-1-1-1-1-1-3-|


e-0------3------------------------------------|
B-1------3------------------------------------|
G-2------0------------------------------------|
D-2------0------3-3-3-3-3-3-3-3---3-3-3-3-3-3-|
A-0------2------3-3-3-3-3-3-3-3---3-3-3-3-3-3-|
E--------3------1-1-1-1-1-1-1-1---1-1-1-1-1-1-|

e----------------------------------|
B----------------------------------|
G----------------------------------|
D-3-3-3-3-3-3-3-3---3-3-3----------|
A-3-3-3-3-3-3-3-3---3-3-3----2-3---|
E-1-1-1-1-1-1-1-1---1-1-1--3-------|

e---------------------------------------------------5~~-8b9b8p5---5--9p5~~-|
B-------------------------------------------------8-------------9----------|
G-----5-7-7b9~~---7b9b7p5---5h7----------5-7-7b9~--------------------------|
D---7---------------------7-----7~~----7-----------------------------------|
A--------------------------------------------------------------------------|
E--------------------------------------------------------------------------|
Tap to rate this tab
# A B C D E F G H I J K L M N O P Q R S T U V W X Y Z