Song name
# A B C D E F G H I J K L M N O P Q R S T U V W X Y Z

Bullet For My Valentine - Forever And Always Acoustic tab

FOREVER AND ALWAYS acoustic - BULLET FOR MY VALENTINE 
TABBED BY GEORGE WILLIAMS 
STANDARD TUNING (EADBGE) 


Well! i was listening to this the other day, and decided to look for a tab.
however, seeing as i dont have guitar pro, i couldnt see the tab that's
on here. so i just figured it out by ear. it's all there, including the 5
guitar parts for the long long outro. so yeh take a look, print it off and
leave any comments you feel necessary. cheers.
oh and if anyone says OOSH its just copied from guitar pro:
it's not, i dont have guitar pro. and i will set fire to you if you suggest
this. so think before you right. 
and please dont be TOO harsh, im just 15...

13/8/08 - corrected quite a bit


legend: 

| b    bend 
| r    return 
| /    slide up 
| \    slide down 
| h    hammer on 
| p    pull off 
| *    pinch harmonic 
| ~    tremolo 
| ...  palm muted 
| x    muted note 
| (n)  optional note 
| T    tapped note
| >    accented note (play strongly)

BPM: 150


RIGHT i'm just going to put the guitars one under another, cus guitar 
2 is just chords, so it would get confusing to when it comes in. 


INTRO PT 1:

|-----------------------|
|-/3-1--0---------------|
|-/2------0-(0)---------|
|---(2)(0)--------------|
|-(3)----(3)------------|
|----------------0b1r0--| <- here, you can bend the strings behind the nut
                           to bend from 0 to 1, or you can play it an 
                           octave higher. 


INTRO PT 2:

|----------------------------------|----------------------------------|
|-----1-----0-----3-----1-----0-1--|-----1-----0-----3-----1-----1-0--|
|---0-----0-----0-----0-----0------|---0-----0-----0-----0-----0------|
|----------------------------------|----------------------------------|
|-3-----3-----3-----3-----3--------|-3-----3-----3-----3-----3--------|
|----------------------------------|----------------------------------|
|
|----------------------------------|----------------------------------|
|-1~~------------------------------|----------------------------------|
|-0~~------------------------------|----------------------------------|
|-2~~------------------------------|----------------------------------|
|-3~~------------------------------|----------------------------------|
|----------------------------------|----------------------------------|


|----------------------------------|----------------------------------|
|-----1-----0-----3-----1-----0-1--|-----1-----0-----3-----1-----0-1--|
|---0-----0-----0-----0-----0------|---0-----0-----0-----0-----0------|
|----------------------------------|----------------------------------|
|-0-----0-----0-----0-----0--------|----------------------------------|
|----------------------------------|-3-----3-----3-----3-----3--------|
|
|----------------------------------|-1~~------------------------------|
|-1~~------------------------------|-1~~------------------------------|
|-0~~------------------------------|-2~~------------------------------|
|-2~~------------------------------|-3~~------------------------------|
|-0~~------------------------------|(3)~------------------------------|
|----------------------------------|----------------------------------|


INTRO PT 3:

|----------------------------------|----------------------------------|
|-----1-----0-----3-----1-----0-1--|-----1-----0-----3-----1-----1-0--|
|---0-----0-----0-----0-----0------|---0-----0-----0-----0-----0------|
|----------------------------------|----------------------------------|
|-3-----3-----3-----3-----3--------|-3-----3-----3-----3-----3--------|
|----------------------------------|----------------------------------|
|
|-----------------------------------|-----------------------------------|
|-1-------1---1-1-(1)-1---1-1-1-1---|-1-------1---1-1-(1)-1---1-1-1-1---|
|-0-------0---0-0-(0)-0---0-0-0-0---|-0-------0---0-0-(0)-0---0-0-0-0---|
|-2-------2---2-2-(2)-2---2-2-2-2---|-2-------2---2-2-(2)-2---2-2-2-2---|
|-3-------3---3-3-(3)-3---3-3-3-3---|-3-------3---3-3-(3)-3---3-3-3-3---|
|-----------------------------------|-----------------------------------|


|----------------------------------|----------------------------------|
|-----1-----0-----3-----1-----0-1--|-----1-----0-----3-----1-----0-1--|
|---0-----0-----0-----0-----0------|---0-----0-----0-----0-----0------|
|----------------------------------|----------------------------------|
|-0-----0-----0-----0-----0--------|----------------------------------|
|----------------------------------|-3-----3-----3-----3-----3--------|
|
|-----------------------------------||----------------------------1-1-1--|
|-1-------1---1-1-(1)-1---1-1-1-1---||-1-------1---1-1--(1)-1---1-1-1-1--|
|-0-------0---0-0-(0)-0---0-0-0-0---||-2-------2---2-2--(2)-2---2-2-2-2--|
|-2-------2---2-2-(2)-2---2-2-2-2---||-3-------3---3-3--(3)-3---3-3-3-3--|1
|-0-------0---0-0-(0)-0---0-0-0-0---||-3-------3---3-3--(3)-3---3-3-3-3--|
|-----------------------------------||-----------------------------------|
                                    ||
                                    ||----------------------------1-1-1--|
 i prefer to play it                ||-1-------1---1-1--(1)-1---1-1-1-1--|
 this way => and i'm not sure       ||-0-------0---0-0--(0)-0---0-0-0-0--|
 which is right, so you choose      ||-0-------0---0-0--(0)-0---0-0-0-0--|2
                                    ||-----------------------------------|
                                    ||-3-------3---3-3--(3)-3---3-3-3-3--|


>On the second time through, play intro part one for the last part.<


VERSE:

|-------------|
|-1-------1~--|
|-0-0-0-0-0~--|
|-2-2-2-2-2~--|
|-3-3-3-3-3~--|
|-------------|

then all of these parts are played the stated number of times:

|---------------------|
|-------1-(1)---------|
|-------------0-----0-|
|---2------------2----| x4
|-3---3---------------|
|---------------------|

|-------0-(0)-------|
|-------------1---1-|
|---------------2---|
|---2---------------|
|-0---0-------------| x2
|-------------------|

|-------3-(3)-------|
|-------------3---3-|
|---------------0---|
|-------------------| x2
|---2---------------|
|-3---3-------------|

|---0---------------|
|-------1-(1)-------|
|-------------0---0-|
|-----2---------2---| x4
|-3-----------------|
|-------------------|

|-------0-(0)-------|
|-------------1---1-|
|---------------2---|
|---2---------------|
|-0---0-------------| x2
|-------------------|

|-------3-(3)-------|
|-------------3---3-|
|---------------0---|
|-------------------| x2
|---2---------------|
|-3---3-------------|


PRECHORUS:
                                   >  >  >  >
|-----------------1-1-1-1-1-1-1-1--0--0--0--0~------------------|
|-1-1-1-1-1-1-1-1-1-1-1-1-1-1-1-1--1--1--1--1~-1--1-1-1--1-1-1--|
|-2-2-2-2-2-2-2-2-2-2-2-2-2-2-2-2--0--0--0--0~-0--0-0-0--0-0-0--|
|-3-3-3-3-3-3-3-3-3-3-3-3-3-3-3-3--2--2--2--2~-2--2-2-2--2-2-2--|
|-3-3-3-3-3-3-3-3-3-3-3-3-3-3-3-3--3--3--3--3~-3--3-3-3--3-3-3--|
|-1-1-1-1-1-1-1-1-1-1-1-1-1-1-1-1-------------------------------|
PM|_____________gradually release.


|-----------------1-1-1-1-1-1-1-1--3-3-3-3-3-3-3-3-3~-|
|-1-1-1-1-1-1-1-1-1-1-1-1-1-1-1-1--3-3-3-3-3-3-3-3-3~-|
|-2-2-2-2-2-2-2-2-2-2-2-2-2-2-2-2--0-0-0-0-0-0-0-0-0~-|
|-3-3-3-3-3-3-3-3-3-3-3-3-3-3-3-3--0-0-0-0-0-0-0-0-0~-|
|-3-3-3-3-3-3-3-3-3-3-3-3-3-3-3-3--2-2-2-2-2-2-2-2-2~-|
|-1-1-1-1-1-1-1-1-1-1-1-1-1-1-1-1--3-3-3-3-3-3-3-3-3~-|
PM|_____________gradually release.



CHORUS:
The same as intro pt 2. (Y)


>REPEAT VERSE<
>REPEAT PRECHORUS<
>REPEAT CHORUS<


BRIDGE/SOLO:

   T      T     T       T      T      T
|-(20)p8--------------|-(20)p8--------------------|
|--------(20)p8-------|--------(20)p8-(17)p5--3/5-|
|---------------h5~p0-|---------------------------|
|---------------------|---------------------------| x3
|---------------------|---------------------------| but dont play guitar 2
|---------------------|---------------------------| on the 2nd time through.
|
|-0~------------------|---------------------------|
|-1~------------------|---------------------------|
|-0~------------------|---------------------------|
|-2~------------------|---------------------------|
|-3~------------------|---------------------------|
|---------------------|---------------------------|


   T      T     T       T      T      T
|-(20)p8--------------|-(20)p8----------------------|
|--------(20)p8-------|--------(20)p8-(17)p5--5/7\5~|
|---------------h5~p0-|-----------------------------|
|---------------------|-----------------------------|
|---------------------|-----------------------------|
|---------------------|-----------------------------|
|
|-0~------------------|---------------------------|
|-1~------------------|---------------------------|
|-0~------------------|---------------------------|
|-2~------------------|---------------------------|
|-3~------------------|---------------------------|
|---------------------|---------------------------|

the 20s are tapped, and just pulled off to give a tapped harmonic 
effect. as is the 17. NO notes are actually picked in guitar 1's part.
they are all either hammered on, tapped or pulled off.


BREAK:

|-------------0-0-0-0---------------0-0-0-0-|
|-1--1-1-1--1-1-1-1-1---1--1-1-1--1-1-1-1-1-|
|-0--0-0-0--0-0-0-0-0---0--0-0-0--0-0-0-0-0-|
|-2--2-2-2--2-2-2-2-2---2--2-2-2--2-2-2-2-2-|
|-3--3-3-3--3-3-3-3-3---3--3-3-3--3-3-3-3-3-|
|-------------------------------------------|


|-------------0-0-0-0---------------3-3-3-3--|
|-1--1-1-1--1-1-1-1-1---1--1-1-1--1-1-1-1-1--|
|-0--0-0-0--0-0-0-0-0---2--2-2-2--2-2-2-2-2--|
|-2--2-2-2--2-2-2-2-2---3--3-3-3--3-3-3-3-3--|
|-0--0-0-0--0-0-0-0-0---3--3-3-3--3-3-3-3-3--|
|--------------------------------------------|


OUTRO PT 1:
is the same as intro pt 2

OUTRO PT 2:
is the same as outro pt 1, except with a 3rd guitar playing:

|-----0-----------1-----0-------0--|-----0-----------1-----0-------0--|
|-----------3-----------------3----|-----------3-----------------3----|
|---0-----0-----0-----0-----0------|---0-----0-----0-----0-----0------|
|----------------------------------|----------------------------------|
|-3-----3-----3-----3-----3--------|-3-----3-----3-----3-----3--------|
|----------------------------------|----------------------------------|

|-----0-----------1-----0-------0--|-----0-----------1-----0-------0--|
|-----------3-----------------3----|-----------3-----------------3----|
|---0-----0-----0-----0-----0------|---0-----0-----0-----0-----0------|
|----------------------------------|----------------------------------|
|-0-----0-----0-----0-----0--------|----------------------------------|
|----------------------------------|-3-----3-----3-----3-----3--------|


OUTRO PT 3:
is the same as outro pt 2, except with a 4th guitar playing

|-----------------------|-----------------------|
|-----------------------|-----------------------|
|-5~--4~-/7~-\5~--4/5~--|-5~--4~-/7~-\5~--4\2~--|
|-----------------------|-----------------------|
|-----------------------|-----------------------|
|-----------------------|-----------------------|

|-----------------------|-----------------------|
|-----------------------|-----------------------|
|-5~--4~-/7~-\5~--4/5~--|-5~--4~--7~-\5~--4/5~--|
|-----------------------|-----------------------|
|-----------------------|-----------------------|
|-----------------------|-----------------------|


OUTRO PT 4:
is the same as outro pt 3, except with a 5th guitar playing:

|-----------------------|-----------------------|
|-5~--3~-/6~-\5~--3/5~--|-5~--3~-/6~-\5~--3\1~--|
|-5~--4~-/7~-\5~--4/5~--|-5~--4~-/7~-\5~--4\2~--|
|-----------------------|-----------------------|
|-----------------------|-----------------------|
|-----------------------|-----------------------|

|-----------------------|-----------------------|
|-5~--3~-/6~--5~--3/5~--|-5~--3~-/6~-\5~--3/5~--|
|-5~--4~-/7~--5~--4/5~--|-5~--4~-/7~-\5~--4/5~--|
|-----------------------|-----------------------|
|-----------------------|-----------------------|
|-----------------------|-----------------------|


AND THEN JUST END ON A QUIET C CHORD MATE.


SONG ORDER:
_____________

INTRO PT 1  x 1
INTRO PT 2  x 1
INTRO PT 3  x 2
VERSE       x 1
PRECHORUS   x 1
CHORUS      x 1
VERSE       x 1
PRECHORUS   x 1
CHORUS      x 1
BRIDGE      x 1
BREAK       x 1
OUTRO PT 1  x 1
OUTRO PT 2  x 1
OUTRO PT 3  x 1
OUTRO PT 4  x 2

And that's it =] enjoy, comment, rate, whatever floats your boat..
Tap to rate this tab
# A B C D E F G H I J K L M N O P Q R S T U V W X Y Z