Song name
# A B C D E F G H I J K L M N O P Q R S T U V W X Y Z

Bullet For My Valentine - Say Goodnight tab

Say Goodnight
Bullet For My Valentine
D Tuning- DGCFAD

-Intro-
Padge- Clean
D||------------------------------------------------------------------||
A||o----------------------------------------------------------------o||
F||---------0-----------0-------0-----------0-----------0-------0----||
C||-----4-----4---4-------4---4---4-----4-----4---4-------4---4---4--||
G||o--7---7-----7-----7-----5---------7---7-----7-----7-----5-------o||
D||-0---------------0---------------0---------------0----------------||

Matt's Intro Solo
Light Dist.
D|----------------------------------------------------------------------|
A|----------------------------------------------------------------------|
F|----------------------------7-----------------------------------------|
C|-9~~~--7--9--10--9--7--5--4~~--5~~~~-4--5--7--5--4--5--4--5-----------|
G|------------------------------------------------------------5-5/7~~~~-|
D|----------------------------------------------------------------------|

D|-----------------------------------------------------|
A|-----------------------------------------------------|
F|-----------------------------------------------------|
C|--------------------------9--10--7~--9--5~--7--4~~~~-|
G|-5--7--9--7--9--10--9--10----------------------------|
D|-----------------------------------------------------|

D|-15p14-------------15p14-------------15p14----14-17b~~~r-15-14-15-14h17p15p14------|
A|-------15----------------15----------------15---------------------------------15~~-|
F|----------14-12~~~----------14-----------------------------------------------------|
C|-------------------------------14~~~-----------------------------------------------|
G|-----------------------------------------------------------------------------------|
D|-----------------------------------------------------------------------------------|

D|-15p14-------------15p14-------------15p14----14-17b~~~r-15-14-15-17-15-14-14h15p14------|
A|-------15----------------15----------------15---------------------------------------17~~-|
F|----------14-12~~~----------14-----------------------------------------------------------|
C|-------------------------------14~~~-----------------------------------------------------|
G|-----------------------------------------------------------------------------------------|
D|-----------------------------------------------------------------------------------------|
Padge Under Solo
D||----------0--------------------------------0-------------------------||
A||o-----0-----0--------------------------0-----0----------------------o||
F||--------0-----0--------0-----0-----------0-----0--------0-----0------||
C||---------------------4-----4---4----------------------4-----4---4----||
G||o---7-----------2--3-----5-------5---7-----------2--3-----5-------5-o||
D||--0--------------------------------0---------------------------------||

D|---------0------------0--------------------0------------0-----------|
A|-----3-----3------------0-----0--------0-----0------------0-----0---|
F|-------0-----0------------------0--------0-----0------------------0-|
C|---2-----------2----2-------4--------2-----------2----2-------4-----|
G|-3----------------3-------5---------------------------------5-------|
D|----------------------------------0-----------------0---------------|

D|---------0------------0-----------------|
A|-----3-----3------------0----------0~~~-|
F|-------0-----0----------------0----0~~~-|
C|---2-----------2----2-------4---4--2~~~-|
G|-3----------------3-------5--------2~~~-|
D|-----------------------------------0~~~-|


-Verse-
Matt & Padge- Clean
D|---------0--------------------------------0------------------------|
A|-----0-----0--------------------------0-----0----------------------|
F|-------0-----0--------0-----0-----------0-----0--------0-----0-----|
C|--------------------4-----4---4----------------------4-----4---4---|
G|---7-----------2--3-----5-------5---7-----------2--3-----5-------5-|
D|-0--------------------------------0--------------------------------|
"Heavens waiting for you, just close your eyes and say goodbye"

D|---------0--------------------------------0--------------------|
A|-----0-----0--------------------------0-----0-------3~~~-------|
F|-------0-----0--------0-----0-----------0-----0-----0~~~-------|
C|--------------------4-----4---4---------------------2~~~-------|
G|---7-----------2--3-----5-------5---7------------2--3~~~-------|
D|-0--------------------------------0-----------------------3--2-|
"Hearing your pulse go on and on and on..."

Gtr 3- Dist.
D|-------------------|
A|-----[7]~~~~~~~~~~-|
F|-[5]~~~~~~~~~~~----|
C|-------------------|
G|-------------------|
D|-------------------|

D||----------0--------------------------------0-------------------------||
A||o-----0-----0--------------------------0-----0----------------------o||
F||--------0-----0--------0-----0-----------0-----0--------0-----0------||
C||---------------------4-----4---4----------------------4-----4---4----||
G||o---7-----------2--3-----5-------5---7-----------2--3-----5-------5-o||
D||--0--------------------------------0---------------------------------||
"I live my life in misery, I'd sacrifice this world to hold you
No breath left inside of me, shattered glass keeps fallin'"

Gtr 3- Dist.
D|-------------------|
A|-----[7]~~~~~~~~~~-|
F|-[5]~~~~~~~~~~~----|
C|-------------------|
G|-------------------|
D|-------------------|

-Chorus-
D|---------0------------0--------------------0------------0-----------|
A|-----3-----3------------0-----0--------0-----0------------0-----0---|
F|-------0-----0------------------0--------0-----0------------------0-|
C|---2-----------2----2-------4--------2-----------2----2-------4-----|
G|-3----------------3-------5---------------------------------5-------|
D|----------------------------------0-----------------0---------------|
"Saaaay (Saay) Goodnight, just sleep tight"

D|---------0------------0-----------------|
A|-----3-----3------------0----------0~~~-|
F|-------0-----0----------------0----0~~~-|
C|---2-----------2----2-------4---4--2~~~-|
G|-3----------------3-------5--------2~~~-|
D|-----------------------------------0~~~-|
"Say Goodnight"

Padge's Solo
Light Dist.
D|-[5]-----------------------------12-14-14pb-14-12----12---------------------|
A|-----[5]-----[7]-----15b~~r-15b~------------------15----15b~-15b~~~----15~~-|
F|---------[5]-----[7]-----------------------------------------14b~~~-12------|
C|----------------------------------------------------------------------------|
G|----------------------------------------------------------------------------|
D|----------------------------------------------------------------------------|

D|-12-17-12-15-12----12-17-12-15-12----12-17-12-------------------------------------12h14h15-14~~-|
A|----------------15----------------15-------------------------------------12h13h15---------------|
F|----------------------------------------------------------------11h12h14------------------------|
C|-------------------------------------------------------10h12h14---------------------------------|
G|----------------------------------------------10h12h14------------------------------------------|
D|------------------------------------------------------------------------------------------------|

D|-15-14-15~~--17-15-17~~-14-15-17-15-17-19-17-19-20-19-20-22-22b~~-20-19----19--------------|
A|------------------------------------------------------------------------20----20-19-17~~~~-|
F|-------------------------------------------------------------------------------------------|
C|-------------------------------------------------------------------------------------------|
G|-------------------------------------------------------------------------------------------|
D|-------------------------------------------------------------------------------------------|
Matt Under Solo
Clean
D||----------0--------------------------------0-------------------------||------------|
A||o-----0-----0--------------------------0-----0----------------------o||-3~~~~------|
F||--------0-----0--------0-----0-----------0-----0--------0-----0------||-0~~~~------|
C||---------------------4-----4---4----------------------4-----4---4----||-2~~~~------|
G||o---7-----------2--3-----5-------5---7-----------2--3-----5-------5-o||-3~~~~------|
D||--0--------------------------------0---------------------------------||-------3--2-|

-Verse-
Matt & Padge- Clean
D|---------0--------------------------------0------------------------|
A|-----0-----0--------------------------0-----0----------------------|
F|-------0-----0--------0-----0-----------0-----0--------0-----0-----|
C|--------------------4-----4---4----------------------4-----4---4---|
G|---7-----------2--3-----5-------5---7-----------2--3-----5-------5-|
D|-0--------------------------------0--------------------------------|
"Flowers laid out for you, so many colors leave me blind"

D|---------0--------------------------------0-------------------|
A|-----0-----0--------------------------0-----0------3~~~-------|
F|-------0-----0--------0-----0-----------0-----0----0~~~-------|
C|--------------------4-----4---4--------------------2~~~-------|
G|---7-----------2--3-----5-------5---7-----------2--3~~~-------|
D|-0--------------------------------0----------------------3--2-|
"Seeing your face reflect from our babies eyes"

Gtr 3- Dist.
D|----------------------------12-------------------------------------12---------------------|
A|-----[7]-----------15----------------15-------------------15----------------15------------|
F|-[5]--------/11-12----11-12----11-12----11-12-9~~--/11-12----11-12----11-12----11-12-14~~-|
C|------------------------------------------------------------------------------------------|
G|------------------------------------------------------------------------------------------|
D|------------------------------------------------------------------------------------------|

D|-----------------12-------------------------------------12----------------17~~-|
A|--------15----------------15-------------------15----------------15------------|
F|-/11-12----11-12----11-12----11-12-9~~--/11-12----11-12----11-12----11-12------|
C|-------------------------------------------------------------------------------|
G|-------------------------------------------------------------------------------|
D|-------------------------------------------------------------------------------|

D||----------0--------------------------------0-------------------------||
A||o-----0-----0--------------------------0-----0----------------------o||
F||--------0-----0--------0-----0-----------0-----0--------0-----0------||
C||---------------------4-----4---4----------------------4-----4---4----||
G||o---7-----------2--3-----5-------5---7-----------2--3-----5-------5-o||
D||--0--------------------------------0---------------------------------||
"I live my life in misery, I'd sacrifice this world to hold you
No breath left inside of me, shattered glass keeps fallin'"

-Chorus-
D|---------0------------0--------------------0------------0-----------|
A|-----3-----3------------0-----0--------0-----0------------0-----0---|
F|-------0-----0------------------0--------0-----0------------------0-|
C|---2-----------2----2-------4--------2-----------2----2-------4-----|
G|-3----------------3-------5---------------------------------5-------|
D|----------------------------------0-----------------0---------------|
"Saaaay (Saay) Goodnight, just sleep tight"

D|---------0------------0-----------|
A|-----3-----3------------0---------|
F|-------0-----0----------------0---|
C|---2-----------2----2-------4---4-|
G|-3----------------3-------5-------|
D|----------------------------------|
"Say Goodnight"

-Breakdown-
Matt & Padge- Dist.
D|--------------------------------------|
A|--------------------------------------|
F|--------------------------------------|
C|-14//2------------------5-5-------7-7-|
G|-14//2-2-2-2-2-2-2-2-2--3-3--5-5--5-5-|
D|-12//0-0-0-0-0-0-0-0-0-------3-3------|
         - - - - - - -

D||-------------------------------------------|
A||o------------------------------------------|
F||-------------------------------------------|
C||---------------------------5~~~~~-----7~~--|
G||o-----5h7p5h7-----5h7p5p0--3~~~~~--5--5~~--|
D||--0-0---------0-0------------------3-------|
     - -         - -
"SO HERE I AM, YOU'RE INSIDE OF ME!!!"

D|------------------------------------------------------------||
A|-----------------------------------------------------------o||
F|------------------------------------------------------------||
C|--------------------------5~~-------------------------------||
G|-----5h7p5h7-----5h7p5p0--3~~--5h8p5p0---------------------o||
D|-0-0---------0-0-----------------------5p0-5h8p5p0-3h6p3p0--||
   - -         - -
"SO HERE I AM, OUR WORLD IS OVER!"

D||-------------------------------------------|
A||o------------------------------------------|
F||-------------------------------------------|
C||---------------------------5~~~~~-----7~~--|
G||o-----5h7p5h7-----5h7p5p0--3~~~~~--5--5~~--|
D||--0-0---------0-0------------------3-------|
     - -         - -
-"Here I am with you...
-"Memories are calling...

D|----------------------------------------------------------||
A|---------------------------------------------------------o||
F|----------------------------------------------------------||
C|--------------------------5-------------------------------||
G|-----5h7p5h7-----5h7p5p0--3--5h8p5p0---------------------o||
D|-0-0---------0-0---------------------5p0-5h8p5p0-3h6p3p0--||
   - -         - -
...I'm there 'til the end"
...So farewell my friend (FAREWELL MY FRIEND!)

Matt
D|----------------------------------------------------------|
A|----------------------------------------------------------|
F|---------------------------------------0-----0------------|
C|-2~~~~~~~~~~~~~~~~~~~~---------------4-----4---4----2~~~~-|
G|-2~~~~~~~~~~~~~~~~~~~~-------------3-----5-------5--2~~~~-|
D|-0~~~~~~~~~~~~~~~~~~~~------------------------------0~~~~-|
Padge                                - -   - -   - -
D|-------------------------14-15-17b~~r---------------------|
A|-------------------15-17--------------15------------------|
F|----------14-16-17----------------------------------------|
C|-14-16-17-------------------------------------------------|
G|----------------------------------------------------------|
C|----------------------------------------------------------|
   -  -  -  -  -  -  -  -

Matt
D|----------------------------------------------------------------|
A|----------------------------------------------------------------|
F|---------------------------------------0-----0------------------|
C|-------------------------------------4-----4---4----2-----------|
G|-----------------------------------3-----5-------5--2-2-2-2-2-2-|
D|----------------------------------------------------0-0-0-0-0-0-|
Padge                                - -   - -   - -    - - - - -
D|-------------------------14-15-17b~~r--17b~~--15~~~~------------|
A|-------------------15-17----------------------------------------|
F|----------14-16-17----------------------------------------------|
C|-14-16-17-------------------------------------------------------|
G|----------------------------------------------------x\\\\\\\\\\-|
C|----------------------------------------------------x\\\\\\\\\\-|
   -  -  -  -  -  -  -  -

-Outro-
Matt & Padge
D|------------------------------------------|
A|------------------------------------------|
F|------------------------------------------|
C|--------------------------5~~~~~-----7~~--|
G|-----5h7p5h7-----5h7p5p0--3~~~~~--5--5~~--|
D|-0-0---------0-0------------------3-------|
   - -         - -
"Here I am with you...

D|---------------------------------------------------------|
A|---------------------------------------------------------|
F|---------------------------------------------------------|
C|--------------------------5------------------------------|
G|-----5h7p5h7-----5h7p5p0--3--5h8p5p0---------------------|
D|-0-0---------0-0---------------------5p0-5h8p5p0-3h6p3p0-|
   - -         - -
...I'm there 'til the end"

Matt
D|------------------------------------------|
A|------------------------------------------|
F|------------------------------------------|
C|------------------------------5--5\4--4\2-|
G|-----5h7p5h7-----5h7p5p0-3~~~-------------|
C|-0-0---------0-0--------------------------|
   - -         - -
Padge
D|---------------------------------------------|
A|---------------------------------------------|
F|---------------------------------------------|
C|---------------------------------9--9\7--7\5-|
G|-----9h10p9h10-----9h10p9p0-7~~~-------------|
C|-0-0-----------0-0---------------------------|
   - -           - -
"Memories are calling...

Matt
D|---------------------------------------------------------|
A|---------------------------------------------------------|
F|---------------------------------------------------------|
C|--------------------------5------------------------------|
G|-----5h7p5h7-----5h7p5p0--3--5h8p5p0---------------------|
D|-0-0---------0-0---------------------5p0-5h8p5p0-3h6p3p0-|
   - -         - -
Padge
D|------------------------------------------------------------|
A|------------------------------------------------------------|
F|------------------------------------------------------------|
C|-----------------------------5------------------------------|
G|-----9h10p9h10-----9h10p9p0--3--5h8p5p0---------------------|
D|-0-0-----------0-0----------------------5p0-5h8p5p0-3h6p3p0-|
   - -           - -
...So farewell my friend"

Matt & Padge
D||--------------------------------------------------------------------||
A||o------------------------------------------------------------------o||
F||--------------------------------------------------------------------||
C||--------------------------------------------------------------------||
G||o--------------------------------------5h8p5p0---------------------o||
D||--0-0-0-0-0-0-0-0-0-0-0-0-0-0-0-0-0-0----------5p0-5h8p5p0-3h6p3p0--||
     - - -   -   - - - - -   -   - - - -
"FAREWELL MY FRIEND!!!"
...MY FRIEND!!!
...MY FRIIIIIIEEND!!!

D|------------------------------------------------------------------------------------|
A|------------------------------------------------------------------------------------|
F|------------------------------------------------------------------------------------|
C|--------------------------------------------------------7---------------------------|
G|--------------------------------------5h8p5p0------5----5----2-2-2-2--2-2-2-2-2-2-2-|
D|-0-0-0-0-0-0-0-0-0-0-0-0-0-0-0-0-0-0----------5p0--3---------0-0-0-0--0-0-0-0-0-0-0-|
   - - -   -   - - - - -   -   - - - -                         - - - -  - - - - - - -
Tap to rate this tab
 
# A B C D E F G H I J K L M N O P Q R S T U V W X Y Z