Guitaretab - guitar tabs
Song name
# A B C D E F G H I J K L M N O P Q R S T U V W X Y Z

Bullet For My Valentine - Fever tab

AWESOME SONG!!!
I'll be tabbing all of the album Fever, so watch out for them!! Completely 
original and all 98-100% accurate guaranteed.

Check out my Your Betrayal, The Last Fight, Alone, and Begging for Mercy tabs!!

Bullet for My Valentine
"Fever"
Fever


INTRO Part 1---
Guitar 1:
(0:00)
|---------------------------------------------|
|---------------------------------------------|
|---------------------------------------------|
|---------------------------------------------|
|---------------------------------------------|
|-3-00000-5-00000-6-00000-5-00000-3-000-5-000-|
    .....   .....   .....   .....   ...   ...

(0:02)
|---------------------------------------------|
|---------------------------------------------|
|---------------------------------------------|
|---------------------------------------------|
|---------------------------------------------|
|-3-00000-5-00000-6-00000-5-00000-3-000-5-000-|
    .....   .....   .....   .....   ...   ...

(0:05)
|---------------------------------------------|
|---------------------------------------------|
|---------------------------------------------|
|---------------------------------------------|
|---------------------------------------------|
|-3-00000-5-00000-6-00000-5-00000-3-000-5-000-|
    .....   .....   .....   .....   ...   ...

(0:08)
|-------------------------|
|-------------------------|
|-------------------------|
|-0~---3~---5~------------|
|-0~---3~---5~--------3*v-|
|-0~---3~---5~---6v~------|

Guitar 2:
(0:00)
|---------------------------------------------|
|---------------------------------------------|
|---------------------------------------------|
|-0-------------------------------------------|
|-0-------------------------------------------|
|-0-------------------------------------------|

(0:02)
|---------------------------------------------|
|---------------------------------------------|
|---------------------------------------------|
|-0~~~~---------------------------------------|
|-0~~~~---------------------------------------|
|-0~~~~---------------------------12\\\\------|

(0:05)
|---------------------------------------------|
|---------------------------------------------|
|---------------------------------------------|
|---------------------------------------------|
|---------------------------------------------|
|-3-00000-5-00000-6-00000-5-00000-3-000-5-000-|
    .....   .....   .....   .....   ...   ...

(0:08)
|-------------------------|
|-------------------------|
|-------------------------|
|-0~---3~---5~------------|
|-0~---3~---5~--------3*v-|
|-0~---3~---5~---6v~------|



INTRO PART 2---
Guitar 1:
(0:11)
|------------------------------------|
|------------------------------------|
|------------------------------------|
|-3-0--0~--0-3-0--0~--0--------------|
|-3-0--0~--0-3-0--0~--0--------------|
|-3-0--0~--0-3-0--0~--0--6-5-3-6-5-3-|
                         . . . . . .

(0:14)
|-------------------------------|
|-------------------------------|
|-------------------------------|
|-3-0--0~--0--------3-0-3-0-3-5-|
|-3-0--0~--0------5-3-0-3-0-3-5-|
|-3-0--0~--0--/6--5-3-0-3-0-3-5-|

(0:16)
|------------------------------------|
|------------------------------------|
|-----------------------10-10-10-10--|
|-3-0--0~--0-3-0--0~--0--x--x--x--x--|
|-3-0--0~--0-3-0--0~--0--8--8--8--8--|
|-3-0--0~--0-3-0--0~--0--------------|
                         
(0:19)
|-------------------------------|
|-------------------------------|
|-------------------------------|
|-3-0--0~--0--1~--0-1-0-1-3-3-3-|
|-3-0--0~--0--1~--0-1-0-1-3-3-3-|
|-3-0--0~--0--1~--0-1-0-1-3-3-3-|

(0:22)
|------------------------------------|
|------------------------------------|
|------------------------------------|
|-3-0--0~--0-3-0--0~--0--------------|
|-3-0--0~--0-3-0--0~--0--------------|
|-3-0--0~--0-3-0--0~--0--6-5-3-6-5-3-|
                         . . . . . .

(0:25)
|-------------------------------|
|-------------------------------|
|-------------------------------|
|-3-0--0~--0--------3-0-3-0-3-5-|
|-3-0--0~--0------5-3-0-3-0-3-5-|
|-3-0--0~--0--/6--5-3-0-3-0-3-5-|

(0:27)
|------------------------------------|
|------------------------------------|
|-----------------------10-10-10-10--|
|-3-0--0~--0-3-0--0~--0--x--x--x--x--|
|-3-0--0~--0-3-0--0~--0--8--8--8--8--|
|-3-0--0~--0-3-0--0~--0--------------|

(0:30)
|-------------------------------|
|-------------------------------|
|-------------------------------|
|-3-0--0~--0--1~--0-1-0-1-3-3-3-|
|-3-0--0~--0--1~--0-1-0-1-3-3-3-|
|-3-0--0~--0--1~--0-1-0-1-3-3-3-|

Guitar 2:
(0:11)
|------------------------------------|
|------------------------------------|
|------------------------------------|
|-3-0--0~--0-3-0--0~--0--------------|
|-3-0--0~--0-3-0--0~--0--------------|
|-3-0--0~--0-3-0--0~--0--6-5-3-6-5-3-|
                         . . . . . .

(0:14)
|-------------------------------|
|-------------------------------|
|-------------------------------|
|-3-0--0~--0--------3-0-3-0-3-5-|
|-3-0--0~--0------5-3-0-3-0-3-5-|
|-3-0--0~--0--/6--5-3-0-3-0-3-5-|

(0:16)
|-------------------------------|
|-------------------------------|
|-----------------------7-7-7-7-|
|-3-0--0~--0-3-0--0~--0-x-x-x-x-|
|-3-0--0~--0-3-0--0~--0-5-5-5-5-|
|-3-0--0~--0-3-0--0~--0---------|

(0:19)
|-------------------------------|
|-------------------------------|
|-------------------------------|
|-3-0--0~--0--1~--0-1-0-1-3-3-3-|
|-3-0--0~--0--1~--0-1-0-1-3-3-3-|
|-3-0--0~--0--1~--0-1-0-1-3-3-3-|

(0:22)
|------------------------------------|
|------------------------------------|
|------------------------------------|
|-3-0--0~--0-3-0--0~--0--------------|
|-3-0--0~--0-3-0--0~--0--------------|
|-3-0--0~--0-3-0--0~--0--6-5-3-6-5-3-|
                         . . . . . .

(0:25)
|-------------------------------|
|-------------------------------|
|-------------------------------|
|-3-0--0~--0--------3-0-3-0-3-5-|
|-3-0--0~--0------5-3-0-3-0-3-5-|
|-3-0--0~--0--/6--5-3-0-3-0-3-5-|

(0:27)
|-------------------------------|
|-------------------------------|
|-----------------------7-7-7-7-|
|-3-0--0~--0-3-0--0~--0-x-x-x-x-|
|-3-0--0~--0-3-0--0~--0-5-5-5-5-|
|-3-0--0~--0-3-0--0~--0---------|

(0:30)
|-------------------------------|
|-------------------------------|
|-------------------------------|
|-3-0--0~--0--1~--0-1-0-1-3-3-3-|
|-3-0--0~--0--1~--0-1-0-1-3-3-3-|
|-3-0--0~--0--1~--0-1-0-1-3-3-3-|



INTRO Part 3---
Guitar 1:
(0:33)
|-------------------------------------|
|-------------------------------------|
|-------------------------------------|
|-------------------------------------|
|-------------------------------------|
|-0-0-0-0-0-0-0-0-0-0-0-0-6-5-3-6-5-3-|
    . .   . .   . .   . . . . . . . .

(0:36)
|-------------------------------------|
|-------------------------------------|
|-------------------------------------|
|-------------------------------------|
|-------------------------------------|
|-0-0-0-0-0-0-0-0-0-0-0-0-6-5-3-6-5-3-|
    . .   . .   . .   . . . . . . . .

(0:38)
|-------------------------------------|
|-------------------------------------|
|-------------------------------------|
|-------------------------------------|
|-------------------------------------|
|-0-0-0-0-0-0-0-0-0-0-0-0-6-5-3-6-5-3-|
    . .   . .   . .   . . . . . . . .

(0:41)
|-------------------------------------|
|-------------------------------------|
|-------------------------------------|
|-------------------------------------|
|-------------------------------------|
|-0-0-0-0-0-0-0-0-0-0-0-0-6-5-3-6-5-3-|
    . .   . .   . .   . . . . . . . .

Guitar 2:
(0:33)
|-------------------------------------|
|-------------------------------------|
|-------------------------------------|
|-0-----------------------------------|
|-0-----------------------------------|
|-0-----------------------------------|

(0:36)
|-------------------------------------|
|-------------------------------------|
|-------------------------------------|
|-------------------------------------|
|-------------------------------------|
|-------------------------------------|

(0:38)
|-------------------------------------|
|-------------------------------------|
|-------------------------------------|
|-0~~~~-------------------------------|
|-0~~~~-------------------------------|
|-0~~~~-------------------------------|

(0:41)
|-------------------------------------|
|-------------------------------------|
|-------------------------------------|
|-////////////------------------------|
|-////////////------------------------|
|-////////////------------6-5-3-6-5-3-|
                          . . . . . .



VERSE 1---
Both guitars:
(0:44)
"It's hot as hell in here, every..."
|-------------------------------------|
|-------------------------------------|
|-------------------------------------|
|-------------------------------------|
|---0-0---0-0---0-0---0-0-------------|
|-0-0-0-0-0-0-0-0-0-0-0-0-6-5-3-6-5-3-|
    . .   .  .  . .   . . . . . . . .

(0:47)
"body wants to lose control..."
|-------------------------------------|
|-------------------------------------|
|-------------------------------------|
|-------------------------------------|
|---0-0---0-0---0-0---0-0-------------|
|-0-0-0-0-0-0-0-0-0-0-0-0-6-5-3-6-5-3-|
    . .   .  .  . .   . . . . . . . .

(0:50)
"The music's turned up loud, the..."
|-------------------------------------|
|-------------------------------------|
|-------------------------------------|
|-------------------------------------|
|---3-3---3-3---3-3---3-3-------------|
|-3-3-3-3-3-3-3-3-3-3-3-3-6-5-3-6-5-3-|
    . .   .  .  . .   . . . . . . . .

(0:52)
"lights are turned down low..."
|---------------------------------------|
|---------------------------------------|
|---------------------------------------|
|---------------------------------------|
|---0-0---0-0---0-0---0-0---------------|
|-2-2-2-2-2-2-2-2-2-2-2-2-10-9-7-10-9-7-|
    . .   .  .  . .   . .  . . .  . . .

(0:55)
"Wound up like a hurricane and my..."
|-------------------------------------|
|-------------------------------------|
|-------------------------------------|
|-------------------------------------|
|---0-0---0-0---0-0---0-0-------------|
|-0-0-0-0-0-0-0-0-0-0-0-0-6-5-3-6-5-3-|
    . .   .  .  . .   . . . . . . . .

(0:58)
"head is about to explode..."
|-------------------------------------|
|-------------------------------------|
|-------------------------------------|
|-------------------------------------|
|---0-0---0-0---0-0---0-0-------------|
|-0-0-0-0-0-0-0-0-0-0-0-0-6-5-3-6-5-3-|
    . .   .  .  . .   . . . . . . . .

(1:01)
"Can't wait to stop this breath, can't wait..."
|-------------------------------------|
|-------------------------------------|
|-------------------------------------|
|-------------------------------------|
|---3-3---3-3---3-3---3-3-------------|
|-3-3-3-3-3-3-3-3-3-3-3-3-6-5-3-6-5-3-|
    . .   .  .  . .   . . . . . . . .

(1:03)
"wait to let it go..."
|---------------------------------------|
|---------------------------------------|
|---------------------------------------|
|---------------------------------------|
|---0-0---0-0---0-0---0-0---------------|
|-2-2-2-2-2-2-2-2-2-2-2-2-10-9-7-10-9-7-|
    . .   .  .  . .   . .  . . .  . . .



PRECHORUS---
Guitar 1:
(1:06)
"Woah, oh, she hits the stage..."
|------------------------------|
|------------------------------|
|------------------------------|
|-0~~~~------------------------|
|-0~~~~------------------------|
|-0~~~~------------------------|

(1:09)
"Whoa, oh, she makes me crave..."
|------------------------------|
|------------------------------|
|------------------------------|
|-\\\\\\\\\\\\\\\\\\\\\\\\\\\--|
|-\\\\\\\\\\\\\\\\\\\\\\\\\\\--|
|-\\\\\\\\\\\\\\\\\\\\\\\\\\\--|

(1:12)
"So come and take my money..."
|---------------------------------------------|
|---------------------------------------------|
|---------------------------------------------|
|---------------------------------------------|
|---------------------------------------------|
|-3-00000-5-00000-6-00000-5-00000-3-000-5-000-|
    .....   .....   .....   .....   ...   ...

(1:15)
"Whoa, oh, oh, oh, I can..."
|------------------|
|------------------|
|------------------|
|-0~---3~---5~---6-|
|-0~---3~---5~---6-|
|-0~---3~---5~---6-|
[ Tab from: http://www.guitaretab.com/b/bullet-for-my-valentine/222742.html ]
Guitar 2:
(1:06)
|------------------------------|
|------------------------------|
|------------------------------|
|-0~~~~------------------------|
|-0~~~~------------------------|
|-0~~~~------------------------|

(1:09)
|------------------------------|
|------------------------------|
|------------------------------|
|-0~~~~------------------------|
|-0~~~~------------------------|
|-0~~~~------------------------|

(1:12)
|---------------------------------------------|
|---------------------------------------------|
|---------------------------------------------|
|---------------------------------------------|
|---------------------------------------------|
|-3-00000-5-00000-6-00000-5-00000-3-000-5-000-|
    .....   .....   .....   .....   ...   ...

(1:15)
|------------------|
|------------------|
|------------------|
|-0~---3~---5~---6-|
|-0~---3~---5~---6-|
|-0~---3~---5~---6-|



CHORUS---
(1:17)
"feel her fever..."
|------------------------------------|
|------------------------------------|
|------------------------------------|
|-3-0--0~--0-3-0--0~--0--------------|
|-3-0--0~--0-3-0--0~--0--------------|
|-3-0--0~--0-3-0--0~--0--6-5-3-6-5-3-|
                         . . . . . .

(1:20)
"taking over, can you..."
|-------------------------|
|-------------------------|
|------------3~~~~--5~~~~-|
|-3-0--0~--0-3~~~~--5~~~~-|
|-3-0--0~--0-1~~~~--3~~~~-|
|-3-0--0~--0--------------|

(1:23)
"see her fever..."
|------------------------------------|
|------------------------------------|
|-----------------------10-10-10-10--|
|-3-0--0~--0-3-0--0~--0--x--x--x--x--|
|-3-0--0~--0-3-0--0~--0--8--8--8--8--|
|-3-0--0~--0-3-0--0~--0--------------|

(1:26)
"taking over me, I can..."
|-------------------------------|
|-------------------------------|
|-------------------------------|
|-3-0--0~--0--1~--0-1-0-1-3-3-3-|
|-3-0--0~--0--1~--0-1-0-1-3-3-3-|
|-3-0--0~--0--1~--0-1-0-1-3-3-3-|

(1:28)
"feel her fever..."
|------------------------------------|
|------------------------------------|
|------------------------------------|
|-3-0--0~--0-3-0--0~--0--------------|
|-3-0--0~--0-3-0--0~--0--------------|
|-3-0--0~--0-3-0--0~--0--6-5-3-6-5-3-|
                         . . . . . .

(1:31)
"taking over, got a..."
|-------------------------|
|-------------------------|
|------------3~~~~--5~~~~-|
|-3-0--0~--0-3~~~~--5~~~~-|
|-3-0--0~--0-1~~~~--3~~~~-|
|-3-0--0~--0--------------|

(1:34)
"dirty feeling, that..."
|------------------------------------|
|------------------------------------|
|-----------------------10-10-10-10--|
|-3-0--0~--0-3-0--0~--0--x--x--x--x--|
|-3-0--0~--0-3-0--0~--0--8--8--8--8--|
|-3-0--0~--0-3-0--0~--0--------------|

(1:37)
"you're the remedy..."
|-------------------------------|
|-------------------------------|
|-------------------------------|
|-3-0--0~--0--1~--0-1-0-1-3-3-3-|
|-3-0--0~--0--1~--0-1-0-1-3-3-3-|
|-3-0--0~--0--1~--0-1-0-1-3-3-3-|

Guitar 2:
(1:17)
|------------------------------------|
|------------------------------------|
|------------------------------------|
|-3-0--0~--0-3-0--0~--0--------------|
|-3-0--0~--0-3-0--0~--0--------------|
|-3-0--0~--0-3-0--0~--0--6-5-3-6-5-3-|
                         . . . . . .

(1:20)
|-------------------------|
|-------------------------|
|------------3~~~~--5~~~~-|
|-3-0--0~--0-3~~~~--5~~~~-|
|-3-0--0~--0-1~~~~--3~~~~-|
|-3-0--0~--0--------------|

(1:23)
|-------------------------------|
|-------------------------------|
|-----------------------7-7-7-7-|
|-3-0--0~--0-3-0--0~--0-x-x-x-x-|
|-3-0--0~--0-3-0--0~--0-5-5-5-5-|
|-3-0--0~--0-3-0--0~--0---------|


(1:26)
|-------------------------------|
|-------------------------------|
|-------------------------------|
|-3-0--0~--0--1~--0-1-0-1-3-3-3-|
|-3-0--0~--0--1~--0-1-0-1-3-3-3-|
|-3-0--0~--0--1~--0-1-0-1-3-3-3-|

(1:28)
|------------------------------------|
|------------------------------------|
|------------------------------------|
|-3-0--0~--0-3-0--0~--0--------------|
|-3-0--0~--0-3-0--0~--0--------------|
|-3-0--0~--0-3-0--0~--0--6-5-3-6-5-3-|
                         . . . . . .

(1:31)
|-------------------------|
|-------------------------|
|------------3~~~~--5~~~~-|
|-3-0--0~--0-3~~~~--5~~~~-|
|-3-0--0~--0-1~~~~--3~~~~-|
|-3-0--0~--0--------------|

(1:34)
|-------------------------------|
|-------------------------------|
|-----------------------7-7-7-7-|
|-3-0--0~--0-3-0--0~--0-x-x-x-x-|
|-3-0--0~--0-3-0--0~--0-5-5-5-5-|
|-3-0--0~--0-3-0--0~--0---------|


(1:37)                                          
|-------------------------------|
|-------------------------------|
|-------------------------------|
|-3-0--0~--0--1~--0-1-0-1-3-3-3-|
|-3-0--0~--0--1~--0-1-0-1-3-3-3-|
|-3-0--0~--0--1~--0-1-0-1-3-3-3-|



POSTCHORUS---
Both guitars:
(1:40)
"Whoaaaa... come on!!"
|-------------------------------------|
|-------------------------------------|
|-------------------------------------|
|-------------------------------------|
|-------------------------------------|
|-0-0-0-0-0-0-0-0-0-0-0-0-6-5-3-6-5-3-|
    . .   . .   . .   . . . . . . . .



VERSE 2---
[repeat VERSE 1]
(1:42-2:04)
"So I'm looking for a spark...
I gotta buy it to reignite...
Don't worry, you won't get burned...
So don't, don't put up a fight...
Push hard to breaking point...
And I'm ready to overload...
No limits and no regrets...
This time to sell my soul..."



PRECHORUS---
[repeat PRECHORUS]
(2:05-2:16)
"Whoa, oh, you're what I want...
Whoa, oh, you're what I need...
So come and take my money...
Whoa, oh, oh, oh, I can..."



CHORUS---
[repeat CHORUS]
(2:17-2:37)
"feel her fever taking over...
Can you feel her fever taking over me?...
I can feel her fever taking over...
Got a dirty feeling that you're the remedy..."



EXTRA CHORUS PART---
(2:38)
Both guitars:
|-------------------|
|-------------------|
|-------------------|
|-1~--0-1-0-1-3-3-3-|
|-1~--0-1-0-1-3-3-3-|
|-1~--0-1-0-1-3-3-3-|



BRIDGE Part 1---
(2:40)
Both guitars:
|-------------------------------|
|-------------------------------|
|-------------------------------|
|-0~~~~~~~~~~~~~~~~-------------|
|-0~~~~~~~~~~~~~~~~-------------|
|-0~~~~~~~~~~~~~~~~-------------|

(2:50)
"Come here you naughty girl, you're such a tease..."
|----------------------------------|
|----------------------------------|
|----------------------------------|
|-3-0----3-0------------3-0----3-0-|
|-3-0----3-0------------3-0----3-0-|
|-3-0----3-0------------3-0----3-0-|

(2:56)
"You look so beautiful down on your knees..."
|----------------------------------|
|----------------------------------|
|----------------------------------|
|-3-0----3-0------------3-0----3-0-|
|-3-0----3-0------------3-0----3-0-|
|-3-0----3-0------------3-0----3-0-|



BRIDGE Part 2---
Guitar 1:
(3:02)
"Keep on those high-heel shoes..."
|----------------------------------------|
|----------------------------------------|
|----------------------------------------|
|----------------------------------------|
|----------------------------------------|
|-2*-2*-2*-2*-2*-2*-2*-2*---2*-//////-5*-|
  ^artificial harmonics     ^slide down to the 5th, all A.H.

(3:04)
"rip off all your clothes..."
|----------------------------------------|
|----------------------------------------|
|----------------------------------------|
|----------------------------------------|
|----------------------------------------|
|-2*-2*-2*-2*-2*-2*-2*-2*---5*-//////-2*-|
                            ^slide down to the 2nd, all A.H.

(3:07)
"You smell so fucking good, it..."
|----------------------------------------|
|----------------------------------------|
|----------------------------------------|
|----------------------------------------|
|----------------------------------------|
|-2*-2*-2*-2*-2*-2*-2*-2*---2*-//////-5*-|

(3:10)
"makes me lose control..."
|----------------------------------------|
|----------------------------------------|
|----------------------------------------|
|----------------------------------------|
|----------------------------------------|
|-2*-2*-2*-2*-2*-2*-2*-2*---5*-//////-2*-|

(3:13)
"Losing control, you're all I want..."
|----------------------------------------|
|----------------------------------------|
|----------------------------------------|
|----------------------------------------|
|----------------------------------------|
|-2*-2*-2*-2*-2*-2*-2*-2*---2*-//////-5*-|

(3:15)
"Losing control, you're all I need..."
|----------------------------------------|
|----------------------------------------|
|----------------------------------------|
|----------------------------------------|
|----------------------------------------|
|-2*-2*-2*-2*-2*-2*-2*-2*---5*-//////-2*-|

(3:18)
"Losing control, you're all I want..."
|----------------------------------------|
|----------------------------------------|
|----------------------------------------|
|----------------------------------------|
|----------------------------------------|
|-2*-2*-2*-2*-2*-2*-2*-2*---2*-//////-5*-|

(3:21)
"I can't let you go!"
|----------------------------------------|
|----------------------------------------|
|----------------------------------------|
|----------------------------------------|
|----------------------------------------|
|-2*-2*-2*-2*-2*-2*-2*-2*---5*-//////-2*-|

Guitar 2:
(3:02)
|----------------------------------------|
|----------------------------------------|
|----------------------------------------|
|-3-0-------3-0--------------------------|
|-3-0-------3-0--------------------------|
|-3-0-------3-0-------------2*-//////-5*-|

(3:04)
|----------------------------------------|
|----------------------------------------|
|----------------------------------------|
|-3-0-------3-0--------------------------|
|-3-0-------3-0--------------------------|
|-3-0-------3-0-------------5*-//////-2*-|

(3:07)
|----------------------------------------|
|----------------------------------------|
|----------------------------------------|
|-3-0-------3-0--------------------------|
|-3-0-------3-0--------------------------|
|-3-0-------3-0-------------2*-//////-5*-|

(3:10)
|----------------------------------------|
|----------------------------------------|
|----------------------------------------|
|-3-0-------3-0--------------------------|
|-3-0-------3-0--------------------------|
|-3-0-------3-0-------------5*-//////-2*-|

(3:13)
|----------------------------------------|
|----------------------------------------|
|----------------------------------------|
|-3-0-------3-0--------------------------|
|-3-0-------3-0--------------------------|
|-3-0-------3-0-------------2*-//////-5*-|

(3:15)
|----------------------------------------|
|----------------------------------------|
|----------------------------------------|
|-3-0-------3-0--------------------------|
|-3-0-------3-0--------------------------|
|-3-0-------3-0-------------5*-//////-2*-|

(3:18)
|----------------------------------------|
|----------------------------------------|
|----------------------------------------|
|-3-0-------3-0--------------------------|
|-3-0-------3-0--------------------------|
|-3-0-------3-0-------------2*-//////-5*-|

(3:21)
|----------------------------------------|
|----------------------------------------|
|----------------------------------------|
|-3-0-------3-0--------------------------|
|-3-0-------3-0--------------------------|
|-3-0-------3-0-------------5*-//////-2*-|




(3:24)
WHOA, OH, OH, OH, I CAN...



CHORUS---
[repeat CHORUS]
(3:27-3:48)
"feel her fever taking over...
Can you feel her fever taking over me?...
I can feel her fever taking over...
Got a dirty feeling that you're the remedy..."



OUTRO---
(3:49)
Both guitars:
"That you're the remedy..."
|-------------------|
|-----------4-4-4-4-|
|-----------7-7-7-7-|
|-1~--0-1-0---------|
|-1~--0-1-0---------|
|-1~--0-1-0---------|

(3:51)
"You are the remedy..."
|-------------------------------------------------------|
|-------------------------------------------------------|
|-------------------------------------------------------|
|-1~--------1-3-3-3-1~--------1-3-3-3-1~--------------0-|
|-1~--0-1-0-1-3-3-3-1~--0-1-0-1-3-3-3-1~--0-1-0-1-3-1-0-|
|-1~--0-1-0-1-3-3-3-1~--0-1-0-1-3-3-3-1~--0-1-0-1-3-1-0-|
      . . .             . . .             . . . . . .

Related for Fever tab
Fever chords by Bullet For My Valentine