Song name
# A B C D E F G H I J K L M N O P Q R S T U V W X Y Z

Bullet For My Valentine - The Last Fight tab

Artist: Bullet For My Valentine
Album: Fever (2010)
Song: The Last Fight
Tabbed by: danobrien@dsl.pipex.com

Tuning: Drop C (CGCFAD)

Awesome new song from Fever. Im not sure about the SOLO HARMONY so if you find 
stuff wrong the leave a
comment and i'll correct it ;) Please rate...

(0:00 - 0:26)                                        -----------Let Ring--------
D|-------------------------------------------------|---------3-----------5---------|
A|-------------------------------------------------|-----3-----------5-------------|
F|-------------------------------------------------|-------5-----------7-----------|
C|-9-------10--------9--------7--------5----7------|---5-----------7---------------|
G|-7--7777--7--7777--7--7777--7--7777--3-33-5-55---|-3-----------5-----------------|
C|-------------------------------------------------|-------------------------------|
Pm    ....     ....     ....     ....    ..   ..

(0:26 - 0:36)
D|-----------------------------------|
A|-----------------------------------|
F|-----------------------------------|
C|-------5-------5-------5-----------|
G|-----------------------------------|
C|-2---2---2---2---2---2---2--0-2-4--|

(0:36 - 0:41)
D|-------------------------------------------------------------------------------|
A|-------------------------------------------------------------------------------|
F|-------------------------------------------------------------------------------|
C|-----------------5------5------5------------------5------5------5--------------|
G|------2--4--2--2---2--2---2--2---2-----------2--2---2--2---2--2---2--0--2--4---|
C|-000--2--4--2--2---2--2---2--2---2--0--2--4--2--2---2--2---2--2---2--0--2--4---|
Pm ...  .  .                                                           .  .  .

(0:41 - 0:47)                                            v-- played separatly
D|--------------------------------------------------------------------|
A|--------------------------------------------------------------------|
F|-------------------------------------------------4--2--0--2--4------|
C|------4------4------4---------------4------4-----5--4--2--4--5------|
G|-0--0---0--0---0--0---0-----------0---0--0---0----------------------|
C|-0--0---0--0---0--0---0--0--2--4--0---0--0---0----------------------|

(0:47 - 0:52)
D|------------------------------------------------------------------|
A|------------------------------------------------------------------|
F|------------------------------------------------------------------|
C|----5------5------5------------------5------5------5--------------|
G|--2---2--2---2--2---2-----------2--2---2--2---2--2---2--0--2--4---|
C|--2---2--2---2--2---2--0--2--4--2--2---2--2---2--2---2--0--2--4---|
Pm                                                        .  .  .

(0:52 - 0:58)                                            
D|--------------------------------------------------------------------|
A|--------------------------------------------------------------------|
F|-------------------------------------------------4--2--0--0---------|
C|------4------4------4---------------4------4-----5--4--2--2---------|
G|-0--0---0--0---0--0---0-----------0---0--0---0----------------------|
C|-0--0---0--0---0--0---0--0--2--4--0---0--0---0----------------------|

(0:58 - 1:18)
D|-------------------------------------------------------------------------------------|
A|-8-8-8888--7-7-7777--8-8-8888--7-7-7777--8-8-8888--7-7-7777--7-7-7777--7-7-7777------|
F|-7-7-7777--7-7-7777--7-7-7777--7-7-7777--7-7-7777--7-7-7777--7-7-7777--7-7-7777------|
C|-5-5-5555--5-5-5555--5-5-5555--5-5-5555--5-5-5555--5-5-5555--7-7-7777--7-7-7777------|
G|-------------------------------------------------------------5-5-5555--5-5-5555------|
C|-------------------------------------------------------------------------------------|

D|----------------------------------------------------------------------------------------|
A|-8-8-8888--7-7-7777--8-8-8888--7-7-7777--7-7-7888--7-7-7888--888-777-888-777-88-77------|
F|-7-7-7777--7-7-7777--7-7-7777--7-7-7777--7-7-7777--7-7-7777--777-777-777-777-77-77------|
C|-5-5-5555--5-5-5555--5-5-5555--5-5-5555--7-7-7777--7-7-7777--777-777-777-777-77-77------|
G|-----------------------------------------5-5-5555--5-5-5555--555-555-555-555-55-55------|
C|----------------------------------------------------------------------------------------|

(1:18 - 1:39)                                        -----------Let Ring--------
D|-------------------------------------------------|---------3-----------5---------|
A|-------------------------------------------------|-----3-----------5-------------|
F|-------------------------------------------------|-------5-----------7-----------|
C|-9-------10--------9--------7--------5----7------|---5-----------7---------------|
G|-7--7777--7--7777--7--7777--7--7777--3-33-5-55---|-3-----------5-----------------|
C|-------------------------------------------------|-------------------------------|
Pm    ....     ....     ....     ....    ..   ..

(1:39 - 1:42)
D|-----------------------------------|
A|-----------------------------------|
F|-----------------------------------|
C|-------5-------5-------5-----------|
G|-----------------------------------|
C|-2---2---2---2---2---2---2--0-2-4--|

(1:42 - 1:47)
D|-------------------------------------------------------------------------------|
A|-------------------------------------------------------------------------------|
F|-------------------------------------------------------------------------------|
C|-----------------5------5------5------------------5------5------5--------------|
G|------2--4--2--2---2--2---2--2---2-----------2--2---2--2---2--2---2--0--2--4---|
C|-000--2--4--2--2---2--2---2--2---2--0--2--4--2--2---2--2---2--2---2--0--2--4---|
Pm ...  .  .                                                           .  .  .

(1:47 - 1:52)                                            
D|--------------------------------------------------------------------|
A|--------------------------------------------------------------------|
F|-------------------------------------------------4--2--0--2--4------|
C|------4------4------4---------------4------4-----5--4--2--4--5------|
G|-0--0---0--0---0--0---0-----------0---0--0---0----------------------|
C|-0--0---0--0---0--0---0--0--2--4--0---0--0---0----------------------|

(1:52 - 1:57)
D|------------------------------------------------------------------|
A|------------------------------------------------------------------|
F|------------------------------------------------------------------|
C|----5------5------5------------------5------5------5--------------|
G|--2---2--2---2--2---2-----------2--2---2--2---2--2---2--0--2--4---|
C|--2---2--2---2--2---2--0--2--4--2--2---2--2---2--2---2--0--2--4---|
Pm                                                        .  .  .

(1:57 - 2:03)                                            
D|--------------------------------------------------------------------|
A|--------------------------------------------------------------------|
F|-------------------------------------------------4--2--0--0---------|
C|------4------4------4---------------4------4-----5--4--2--2---------|
G|-0--0---0--0---0--0---0-----------0---0--0---0----------------------|
C|-0--0---0--0---0--0---0--0--2--4--0---0--0---0----------------------|

(2:03 - 2:23)
D|-------------------------------------------------------------------------------------|
A|-8-8-8888--7-7-7777--8-8-8888--7-7-7777--8-8-8888--7-7-7777--7-7-7777--7-7-7777------|
F|-7-7-7777--7-7-7777--7-7-7777--7-7-7777--7-7-7777--7-7-7777--7-7-7777--7-7-7777------|
C|-5-5-5555--5-5-5555--5-5-5555--5-5-5555--5-5-5555--5-5-5555--7-7-7777--7-7-7777------|
G|-------------------------------------------------------------5-5-5555--5-5-5555------|
C|-------------------------------------------------------------------------------------|

D|----------------------------------------------------------------------------------------|
A|-8-8-8888--7-7-7777--8-8-8888--7-7-7777--7-7-7888--7-7-7888--888-777-888-777-88-77------|
F|-7-7-7777--7-7-7777--7-7-7777--7-7-7777--7-7-7777--7-7-7777--777-777-777-777-77-77------|
C|-5-5-5555--5-5-5555--5-5-5555--5-5-5555--7-7-7777--7-7-7777--777-777-777-777-77-77------|
G|-----------------------------------------5-5-5555--5-5-5555--555-555-555-555-55-55------|
C|----------------------------------------------------------------------------------------|

(2:23 - 2:44)                                        -----------Let Ring--------
D|-------------------------------------------------|---------3-----------5---------|
A|-------------------------------------------------|-----3-----------5-------------|
F|-------------------------------------------------|-------5-----------7-----------|
C|-9-------10--------9--------7--------5----7------|---5-----------7---------------|
G|-7--7777--7--7777--7--7777--7--7777--3-33-5-55---|-3-----------5-----------------|
C|-------------------------------------------------|-------------------------------|
Pm    ....     ....     ....     ....    ..   ..

SOLO BACKING
D|--------------------------------------------------------|
A|--------------------------------------------------------|
F|--------------------------------------------------------|
C|--------5--7--4--5--2--4---------5--7--4--5--2--4-------|
G|--2--2--3--5--2--3--0--2---2--2--3--5--2--3--0--2-------|
C|--2--2---------------------2--2-------------------------|
Pm  .                        .

SOLO
D|-15h19p15----15----------15-19-0-17-0-15-0-14-0-14h17p14----14----------14-17-0-15-0-14-0-12-0--|
A|----------17----17----17---------------------------------15----15----15-------------------------|
F|-------------------16---------------------------------------------14----------------------------|
C|------------------------------------------------------------------------------------------------|
G|------------------------------------------------------------------------------------------------|
C|------------------------------------------------------------------------------------------------|

D|12h15p12----12----------12-15-0-14-0-12-0-11-0-11h14p11----11------------------------11-14-15-14|
A|---------13----13----13---------------------------------12----12----12------------12------------|
F|------------------12---------------------------------------------11----11------11---------------|
C|----------------------------------------------------------------------------13------------------|
G|-------------------------------------------------------------------------14---------------------|
C|------------------------------------------------------------------------------------------------|

D|-15h19p15----15----------15-19-0-17-0-15-0-14-0-14h17p14----14----------14-17-0-15-0-14-0-12-0--|
A|----------17----17----17---------------------------------15----15----15-------------------------|
F|-------------------16---------------------------------------------14----------------------------|
C|------------------------------------------------------------------------------------------------|
G|------------------------------------------------------------------------------------------------|
C|------------------------------------------------------------------------------------------------|

D|12h15p12----12----------12-15-0-14-0-12-0-11-0-11h14p11----11------------------------11-14-|
A|---------13----13----13---------------------------------12----12----12------------12-------|
F|------------------12---------------------------------------------11----11------11----------|
C|----------------------------------------------------------------------------13-------------|
G|-------------------------------------------------------------------------14----------------|
C|-------------------------------------------------------------------------------------------|

D|--15-17-15---14-15-14---12-14-12---7-10-7------|
A|-----------------------------------------------|
F|-----------------------------------------------|
C|-----------------------------------------------|
G|-----------------------------------------------|
C|-----------------------------------------------|


SOLO HARMONY
D|-19h22p19----19----------19-22-0-20-0-19-0-17-0-17h20p17----17----------17-20-0-19-0-17-0-15-0--|
A|----------20----20----20---------------------------------19----19----19-------------------------|
F|-------------------19---------------------------------------------17----------------------------|
C|------------------------------------------------------------------------------------------------|
G|------------------------------------------------------------------------------------------------|
C|------------------------------------------------------------------------------------------------|

D|15h19p15----15----------15-19-0-17-0-15-0-14-0-14h17p14----14------------------------14-17---|
A|---------17----17----17---------------------------------15----15----15------------15---------|
F|------------------16---------------------------------------------14----14------14------------|
C|----------------------------------------------------------------------------16---------------|
G|-------------------------------------------------------------------------17------------------|
C|---------------------------------------------------------------------------------------------|

D|--19-20-19---17-19-17---15-17-15---12-15-12----|
A|-----------------------------------------------|
F|-----------------------------------------------|
C|-----------------------------------------------|
G|-----------------------------------------------|
C|-----------------------------------------------|


(3:16 - 3:37)
D|-------------------------------------------------------------------------------------|
A|-8-8-8888--7-7-7777--8-8-8888--7-7-7777--8-8-8888--7-7-7777--7-7-7777--7-7-7777------|
F|-7-7-7777--7-7-7777--7-7-7777--7-7-7777--7-7-7777--7-7-7777--7-7-7777--7-7-7777------|
C|-5-5-5555--5-5-5555--5-5-5555--5-5-5555--5-5-5555--5-5-5555--7-7-7777--7-7-7777------|
G|-------------------------------------------------------------5-5-5555--5-5-5555------|
C|-------------------------------------------------------------------------------------|

D|----------------------------------------------------------------------------------------|
A|-8-8-8888--7-7-7777--8-8-8888--7-7-7777--7-7-7888--7-7-7888--888-777-888-777-88-77------|
F|-7-7-7777--7-7-7777--7-7-7777--7-7-7777--7-7-7777--7-7-7777--777-777-777-777-77-77------|
C|-5-5-5555--5-5-5555--5-5-5555--5-5-5555--7-7-7777--7-7-7777--777-777-777-777-77-77------|
G|-----------------------------------------5-5-5555--5-5-5555--555-555-555-555-55-55------|
C|----------------------------------------------------------------------------------------|

(3:37 - 3:57)                                        -----------Let Ring--------
D|-------------------------------------------------|---------3-----------5---------|
A|-------------------------------------------------|-----3-----------5-------------|
F|-------------------------------------------------|-------5-----------7-----------|
C|-9-------10--------9--------7--------5----7------|---5-----------7---------------|
G|-7--7777--7--7777--7--7777--7--7777--3-33-5-55---|-3-----------5-----------------|
C|-------------------------------------------------|-------------------------------|
Pm    ....     ....     ....     ....    ..   ..

(3:57 - 4:08)
D|-----------------------------------|
A|-----------------------------------|
F|-----------------------------------|
C|-------5-------5-------5-----------|
G|----------------------------0-2-4--|
C|-2---2---2---2---2---2---2--0-2-4--|
Pm                            . . .

(4:08 - end)
D|--------------------------------|----------------------|
A|--------------------------------|----------------------|
F|--------------------------------|----------------------|
C|----5------5------5-------------|----------------------|
G|--2---2--2---2--2---2--0--2--4--|--2--2--2--4--5--2----|
C|--2---2--2---2--2---2--0--2--4--|--2--2--2--4--5--2----|
Pm                                   .  .  

Thats it. enjoy :)
Tap to rate this tab
 
# A B C D E F G H I J K L M N O P Q R S T U V W X Y Z