Song name
# A B C D E F G H I J K L M N O P Q R S T U V W X Y Z

Bullet For My Valentine - Cries In Vain tab

Cries in Vain

Tab by GrimGuitarReaper YouTubeChannel: http://www.youtube.com/GrimGuitarReaper

INTRO CLEAN
git1
D|----------------------------------------------------------------|
A|----------------------------------------------------------------|
F|----------------------------------------------------------------|
C|---10---9---5---7-----10---9---5--------------------------------|
G|-0----0---0---0-----0----0---0---0-7----------------------------|
C|----------------------------------------------------------------|
   -    -   -   -     -    -   -   -
git1
D|----------------------------------------------------------------|
A|----------------------------------------------------------------|
F|----------------------------------------------------------------|
C|---10---9---5---7-----10---12--9-9-9----------------------------|
G|-0----0---0---0-----0----0---0----------------------------------|
C|----------------------------------------------------------------|
   -    -   -   -     -    -   -   



git1
D|------------0----------------------------------0-------------------------|
A|------------6----------------------------------6-------------------------|
F|------------5----------------------------------5-------------------------|
C|-3-3-3-3--3-3-----------------------3-3-3-3--3-3-------------------------|
G|-3-3-3-3--3-3-----------------------3-3-3-3--3-3-------------------------|
C|-3-3-3-3--3-3-----------------------3-3-3-3--3-3-------------------------|
   -------			      -------

git2
D|-------------------------------------------------------------------------|
A|-------------------------------------------------------------------------|
F|------------5-4----7-5----4-5---4-5------------5-4----7-5----4-5---4-5---|
C|----------------5-------5-----5--------------------5-------5-----5-------|
G|-------------------------------------------------------------------------|
C|-------------------------------------------------------------------------|




git1
D|------------0----------------------------------0-------------------------|
A|------------0----------------------------------0-------------------------|
F|-2-2-2-2--2-4-----------------------2-2-2-2--2-4-------------------------|
C|-2-2-2-2--2-2-----------------------2-2-2-2--2-2-------------------------|
G|-0-0-0-0--0-0-----------------------0-0-0-0--0-0-------------------------|
C|-------------------------------------------------------------------------|
   -------			      -------

git2
D|-------------------------------------------------------------------------|
A|-------------------------------------------------------------------------|
F|------------5-4----7-5----4-5---4-5------------5-4----7-5----4-5---4-5---|
C|----------------5-------5-----5--------------------5-------5-----5-------|
G|-------------------------------------------------------------------------|
C|-------------------------------------------------------------------------|




git1
D|------------0----------------------------------0-------------------------|
A|------------6----------------------------------6-------------------------|
F|------------5----------------------------------5-------------------------|
C|-3-3-3-3--3-3-----------------------3-3-3-3--3-3-------------------------|
G|-3-3-3-3--3-3-----------------------3-3-3-3--3-3-------------------------|
C|-3-3-3-3--3-3-----------------------3-3-3-3--3-3-------------------------|
   -------			      -------

git2
D|-------------------------------------------------------------------------|
A|-------------------------------------------------------------------------|
F|------------5-4----7-5----4-5---4-5------------5-4----7-5----4-5---4-5---|
C|----------------5-------5-----5---------------------5-------5-----5------|
G|-------------------------------------------------------------------------|
C|-------------------------------------------------------------------------|

git3
D|-------------------------------------------------------------------------|
A|-------------------------------------------------------------------------|
F|-------------10-9----12-10--7-9---7-9----------10-9----12-10--7-9---7-9--|
C|-------------------------------------------------------------------------|
G|-----------------10-------10----10-----------------10-------10----10-----|
C|-------------------------------------------------------------------------|




git1
D|------------0----------------------------------0-------------------------|
A|------------0----------------------------------0-------------------------|
F|-2-2-2-2--2-4-----------------------2-2-2-2--2-4-------------------------|
C|-2-2-2-2--2-2-----------------------2-2-2-2--2-2-------------------------|
G|-0-0-0-0--0-0-----------------------0-0-0-0--0-0-------------------------|
C|-------------------------------------------------------------------------|
   -------			      -------

git2
D|-------------------------------------------------------------------------|
A|-------------------------------------------------------------------------|
F|------------5-4----7-5----4-5---4-5------------5-4----5~-----------------|
C|----------------5-------5-----5--------------------5---------------------|
G|-------------------------------------------------------------------------|
C|-------------------------------------------------------------------------|

git3
D|-------------------------------------------------------------------------|
A|-------------------------------------------------------------------------|
F|-----------10-9----12-10--7-9---7-9-----------10-9----10~----------------|
C|-------------------------------------------------------------------------|
G|---------------10-------10----10------------------10---------------------|
C|-------------------------------------------------------------------------|




VERSE
git1 git2
D|----------------------------------------------------------------------------|
A|----------------------------------------------------------------------------|
F|-2-2-2-2--2-2-----2-2-2-2--2-2----------------2-2-2-2--2-2--2-2-2-2--2-2--2-|
C|-2-2-2-2--2-2-----2-2-2-2--2-2--3-2-----------2-2-2-2--2-2--2-2-2-2--2-2--2-|
G|-0-0-0-0--0-0-----0-0-0-0--0-0------5-3-5-3-2-0-0-0-0--0-0--0-0-0-0--0-0--0-|
C|----------------------------------------------------------------------------|
   -------	    -------			-------	      -------



git1
D|------------------------------------------------------------------------------------|
A|------------------------------------------------------------------------------------|
F|-2-2-2-2--5-4--2-2-2-2--5-4----------------2-2-2-2--5-7--2-2-2-2--5-4---------------|
C|-2-2-2-2-------2-2-2-2------3-2------------2-2-2-2-------2-2-2-2------3-2-----------|
G|-0-0-0-0-------0-0-0-0----------5-3-5-3-2--0-0-0-0-------0-0-0-0----------5-3-5-3-2-|
C|------------------------------------------------------------------------------------|
   -----	 -----			     -----         -----

git2
D|------------------------------------------------------------------------------------|
A|------------------------------------------------------------------------------------|
F|-2-2-2-2--7-5--2-2-2-2--7-5----------------2-2-2-2--7-5--2-2-2-2--7-5---------------|
C|-2-2-2-2-------2-2-2-2------3-2------------2-2-2-2-------2-2-2-2------3-2-----------|
G|-0-0-0-0-------0-0-0-0----------5-3-5-3-2--0-0-0-0-------0-0-0-0----------5-3-5-3-2-|
C|------------------------------------------------------------------------------------|
   -----	 -----			     -----         -----




REF
git1 git2
D|------------0----------------------------------0-------------------------|
A|------------6----------------------------------6-------------------------|
F|------------5----------------------------------5-------------------------|
C|-3-3-3-3--3-3-----------------------3-3-3-3--3-3-------------------------|
G|-3-3-3-3--3-3-----------------------3-3-3-3--3-3-------------------------|
C|-3-3-3-3--3-3-----------------------3-3-3-3--3-3-------------------------|
   -------			      -------



git1
D|------------0----------------------------------0-------------------------|
A|------------0----------------------------------0-------------------------|
F|-2-2-2-2--2-4-----------------------2-2-2-2--2-4-------------------------|
C|-2-2-2-2--2-2-----------------------2-2-2-2--2-2-------------------------|
G|-0-0-0-0--0-0-----------------------0-0-0-0--0-0-------------------------|
C|-------------------------------------------------------------------------|
   -------			      -------

git2
D|-------------------------------------------------------------------------|
A|-------------------------------------------------------------------------|
F|-5----4---4-------5----4---4--------5----4---4-------5----4---4----------|
C|--5-5---5---3-5----5-5---5---3-5-----5-5---5---3-5----5-5---5---3-5------|
G|-------------------------------------------------------------------------|
C|-------------------------------------------------------------------------|
    ---   -   - -    ---   -   - -     ---   -   - -    ---   -   - -




git1 git2
D|------------0----------------------------------0-------------------------|
A|------------6----------------------------------6-------------------------|
F|------------5----------------------------------5-------------------------|
C|-3-3-3-3--3-3-----------------------3-3-3-3--3-3-------------------------|
G|-3-3-3-3--3-3-----------------------3-3-3-3--3-3-------------------------|
C|-3-3-3-3--3-3-----------------------3-3-3-3--3-3-------------------------|
   -------			      -------



git1
D|------------0----------------------------------0-------------------------|
A|------------0----------------------------------0-------------------------|
F|-2-2-2-2--2-4-----------------------2-2-2-2--2-4-------------------------|
C|-2-2-2-2--2-2-----------------------2-2-2-2--2-2-------------------------|
G|-0-0-0-0--0-0-----------------------0-0-0-0--0-0-------------------------|
C|-------------------------------------------------------------------------|
   -------			      -------

git2
D|-------------------------------------------------------------------------|
A|-------------------------------------------------------------------------|
F|-5----4---4-------5----4---4--------5----4---4----------------------2----|
C|--5-5---5---3-5----5-5---5---3-5-----5-5---5---3-5----3-2-----------2----|
G|----------------------------------------------------------5-3-5-3-2-0----|
C|-------------------------------------------------------------------------|
    ---   -   - -    ---   -   - -     ---   -   - -    

CLEAN
git1
D|----------------------------------------------------------------|
A|----------------------------------------------------------------|
F|----------------------------------------------------------------|
C|---10---9---5---7-----10---9---5--------------------------------|
G|-0----0---0---0-----0----0---0---0-7----------------------------|
C|----------------------------------------------------------------|
   -    -   -   -     -    -   -   -

git1
D|----------------------------------------------------------------|
A|----------------------------------------------------------------|
F|----------------------------------------------------------------|
C|---10---9---5---7-----10---9---9-9-9----------------------------|
G|-0----0---0---0-----0----0---0----------------------------------|
C|----------------------------------------------------------------|
   -    -   -   -     -    -   -   



VERSE
git1 git2
D|----------------------------------------------------------------------------|
A|----------------------------------------------------------------------------|
F|-2-2-2-2--2-2-----2-2-2-2--2-2----------------2-2-2-2--2-2--2-2-2-2--2-2--2-|
C|-2-2-2-2--2-2-----2-2-2-2--2-2--3-2-----------2-2-2-2--2-2--2-2-2-2--2-2--2-|
G|-0-0-0-0--0-0-----0-0-0-0--0-0------5-3-5-3-2-0-0-0-0--0-0--0-0-0-0--0-0--0-|
C|----------------------------------------------------------------------------|
   -------	    -------			-------	      -------



git1
D|------------------------------------------------------------------------------------|
A|------------------------------------------------------------------------------------|
F|-2-2-2-2--5-4--2-2-2-2--5-4----------------2-2-2-2--5-7--2-2-2-2--5-4---------------|
C|-2-2-2-2-------2-2-2-2------3-2------------2-2-2-2-------2-2-2-2------3-2-----------|
G|-0-0-0-0-------0-0-0-0----------5-3-5-3-2--0-0-0-0-------0-0-0-0----------5-3-5-3-2-|
C|------------------------------------------------------------------------------------|
   -----	 -----			     -----         -----

git2
D|------------------------------------------------------------------------------------|
A|------------------------------------------------------------------------------------|
F|-2-2-2-2--7-5--2-2-2-2--7-5----------------2-2-2-2--7-5--2-2-2-2--7-5---------------|
C|-2-2-2-2-------2-2-2-2------3-2------------2-2-2-2-------2-2-2-2------3-2-----------|
G|-0-0-0-0-------0-0-0-0----------5-3-5-3-2--0-0-0-0-------0-0-0-0----------5-3-5-3-2-|
C|------------------------------------------------------------------------------------|
   -----	 -----			     -----         -----




REF
git1 git2
D|------------0----------------------------------0-------------------------|
A|------------6----------------------------------6-------------------------|
F|------------5----------------------------------5-------------------------|
C|-3-3-3-3--3-3-----------------------3-3-3-3--3-3-------------------------|
G|-3-3-3-3--3-3-----------------------3-3-3-3--3-3-------------------------|
C|-3-3-3-3--3-3-----------------------3-3-3-3--3-3-------------------------|
   -------			      -------



git1
D|------------0----------------------------------0-------------------------|
A|------------0----------------------------------0-------------------------|
F|-2-2-2-2--2-4-----------------------2-2-2-2--2-4-------------------------|
C|-2-2-2-2--2-2-----------------------2-2-2-2--2-2-------------------------|
G|-0-0-0-0--0-0-----------------------0-0-0-0--0-0-------------------------|
C|-------------------------------------------------------------------------|
   -------			      -------

git2
D|-------------------------------------------------------------------------|
A|-------------------------------------------------------------------------|
F|-5----4---4-------5----4---4--------5----4---4-------5----4---4----------|
C|--5-5---5---3-5----5-5---5---3-5-----5-5---5---3-5----5-5---5---3-5------|
G|-------------------------------------------------------------------------|
C|-------------------------------------------------------------------------|
    ---   -   - -    ---   -   - -     ---   -   - -    ---   -   - -




git1 git2
D|------------0----------------------------------0-------------------------|
A|------------6----------------------------------6-------------------------|
F|------------5----------------------------------5-------------------------|
C|-3-3-3-3--3-3-----------------------3-3-3-3--3-3-------------------------|
G|-3-3-3-3--3-3-----------------------3-3-3-3--3-3-------------------------|
C|-3-3-3-3--3-3-----------------------3-3-3-3--3-3-------------------------|
   -------			      -------



git1
D|------------0----------------------------------0-------------------------|
A|------------0----------------------------------0-------------------------|
F|-2-2-2-2--2-4-----------------------2-2-2-2--2-4-------------------------|
C|-2-2-2-2--2-2-----------------------2-2-2-2--2-2-------------------------|
G|-0-0-0-0--0-0-----------------------0-0-0-0--0-0-------------------------|
C|-------------------------------------------------------------------------|
   -------			      -------

git2
D|-------------------------------------------------------------------------|
A|-------------------------------------------------------------------------|
F|-5----4---4-------5----4---4--------5----4---4----------------------2----|
C|--5-5---5---3-5----5-5---5---3-5-----5-5---5---3-5----3-2-----------2----|
G|----------------------------------------------------------5-3-5-3-2-0----|
C|-------------------------------------------------------------------------|
    ---   -   - -    ---   -   - -     ---   -   - -    



BRIDGE

git1(6x)
D|----------------------------------------------------------------------------|
A|----------------------------------------------------------------------------|
F|----------------------------------------------------------------------------|
C|--7--7--7--7--7--7---7--7--7--7--7--7---7--7--7--7--7--7---7--7--7--7--7--7-|
G|--0--0--0--0--0--0---8--8--8--8--8--8--10-10-10-10-10-10---7--7--7--7--7--7-|
C|----------------------------------------------------------------------------|
    -------------------------------------------------------------------------

git2(letzten 2 male von dem 6er)
D|----------------------------------------------------------------------------|
A|----------------------------------------------------------------------------|
F|----------------------------------------------------------------------------| 
C|-10-10-10-10-10-10----------------------9--9--9--9--9--9--------------------|
G|--------------------12-12-12-12-12-12---------------------10-10-10-10-10-10-|
C|----------------------------------------------------------------------------|
   --------------------------------------------------------------------------



SOLO
git1
D|----------------------------------------------------------------------------|
A|----------------------------------------------------------------------------|
F|-----9---9-10-----9---9-10--------9----9-10-10/12-10-9-10-9-7---------------|
C|-7-7---7--------------------------------------------------------------------|
G|--------------8-8---8-------10-10---10--------------------------------------|
C|----------------------------------------------------------------------------|

git2
D|----------------------------------------------------------------|
A|----------------------------------------------------------------|
F|----------------------------------------------------------------|
C|-7------------3-------------5---------------2-------------------|
G|-7------------3-------------5---------------2-------------------|
C|-7------------3-------------5---------------2-------------------|



git1
D|----------------------------------------------------------------------------|
A|----------------------------------------------------------------------------|
F|-----9---9-10-----9---9-10--------9----9-10-10/12-10-9-10-9-7---------------|
C|-7-7---7--------------------------------------------------------------------|
G|--------------8-8---8-------10-10---10--------------------------------------|
C|----------------------------------------------------------------------------|


git2
D|----------------------------------------------------------------|
A|----------------------------------------------------------------|
F|----------------------------------------------------------------|
C|-7------------3-------------5---------------2-------------------|
G|-7------------3-------------5---------------2-------------------|
C|-7------------3-------------5---------------2-------------------|



git1
D|----------------------------------------------------------------------------|
A|----------------------------------------------------------------------------|
F|-----9---9-10-----9---9-10--------9----9-10-10/12-10h12p10-9-10-9-7---------|
C|-7-7---7--------------------------------------------------------------------|
G|--------------8-8---8-------10-10---10--------------------------------------|
C|----------------------------------------------------------------------------|


git2
D|----------------------------------------------------------------------------|
A|-----8---8-10-----8---8-10-------8---8-10-----------------------------------|
F|------------------------------------------7/9-7h9p7-5-7-5-4-----------------|
C|10-10-10------7-7---7--------9-9---9----------------------------------------|
G|----------------------------------------------------------------------------|
C|----------------------------------------------------------------------------|
  ----- --      ---   -        ---   -


git1
D|----------------------------------------------------------------------------|
A|----------------------------------------------------------------------------|
F|-----9---9-10-----9---9-10--------9----9-10-10/12-10h12p10-9-10-9-7---------|
C|-7-7---7-----------------------------------------------------------------//-|
G|--------------8-8---8-------10-10---10-----------------------------------//-|
C|-------------------------------------------------------------------------//-|


git2
D|----------------------------------------------------------------------------|
A|-----8---8-10-----8---8-10-------8---8-10-----------------------------------|
F|------------------------------------------7/9-7h9p7-5-7-5-4-----------------|
C|10-10-10------7-7---7--------9-9---9-------------------------------------//-|
G|-------------------------------------------------------------------------//-|
C|-------------------------------------------------------------------------//-|
  ----- --      ---   -        ---   -



REF 
git1 git2
D|------------0----------------------------------0-------------------------|
A|------------6----------------------------------6-------------------------|
F|------------5----------------------------------5-------------------------|
C|-3-3-3-3--3-3-----------------------3-3-3-3--3-3-------------------------|
G|-3-3-3-3--3-3-----------------------3-3-3-3--3-3-------------------------|
C|-3-3-3-3--3-3-----------------------3-3-3-3--3-3-------------------------|
   -------			      -------



git1
D|------------0----------------------------------0-------------------------|
A|------------0----------------------------------0-------------------------|
F|-2-2-2-2--2-4-----------------------2-2-2-2--2-4-------------------------|
C|-2-2-2-2--2-2-----------------------2-2-2-2--2-2-------------------------|
G|-0-0-0-0--0-0-----------------------0-0-0-0--0-0-------------------------|
C|-------------------------------------------------------------------------|
   -------			      -------

git2
D|-------------------------------------------------------------------------|
A|-------------------------------------------------------------------------|
F|-5----4---4-------5----4---4--------5----4---4-------5----4---4----------|
C|--5-5---5---3-5----5-5---5---3-5-----5-5---5---3-5----5-5---5---3-5------|
G|-------------------------------------------------------------------------|
C|-------------------------------------------------------------------------|
    ---   -   - -    ---   -   - -     ---   -   - -    ---   -   - -




git1 git2
D|------------0----------------------------------0-------------------------|
A|------------6----------------------------------6-------------------------|
F|------------5----------------------------------5-------------------------|
C|-3-3-3-3--3-3-----------------------3-3-3-3--3-3-------------------------|
G|-3-3-3-3--3-3-----------------------3-3-3-3--3-3-------------------------|
C|-3-3-3-3--3-3-----------------------3-3-3-3--3-3-------------------------|
   -------			      -------



git1
D|------------0----------------------------------0-------------------------|
A|------------0----------------------------------0-------------------------|
F|-2-2-2-2--2-4-----------------------2-2-2-2--2-4-------------------------|
C|-2-2-2-2--2-2-----------------------2-2-2-2--2-2-------------------------|
G|-0-0-0-0--0-0-----------------------0-0-0-0--0-0-------------------------|
C|-------------------------------------------------------------------------|
   -------			      -------

git2
D|-------------------------------------------------------------------------|
A|-------------------------------------------------------------------------|
F|-5----4---4-------5----4---4--------5----4---4----------------------2----|
C|--5-5---5---3-5----5-5---5---3-5-----5-5---5---3-5----3-2-----------2----|
G|----------------------------------------------------------5-3-5-3-2-0----|
C|-------------------------------------------------------------------------|
    ---   -   - -    ---   -   - -     ---   -   - -    

CLEAN
git1
D|----------------------------------------------------------------|
A|----------------------------------------------------------------|
F|----------------------------------------------------------------|
C|---10---9---5---7-----10---9---5--------------------------------|
G|-0----0---0---0-----0----0---0---0-7----------------------------|
C|----------------------------------------------------------------|
   -    -   -   -     -    -   -   -

git1
D|----------------------------------------------------------------|
A|----------------------------------------------------------------|
F|----------------------------------------------------------------|
C|---10---9---5---7-----10---9---9-9-9----------------------------|
G|-0----0---0---0-----0----0---0----------------------------------|
C|----------------------------------------------------------------|
   -    -   -   -     -    -   -   

OUTRO

git1 git2(4x)
D|----------------------------------------------------------------|
A|----------------------------------------------------------------|
F|-2-2--2-2-2--2-2-2--2-2-2--2-2-2--2-2-2--2----------------------|
C|-2-2--2-2-2--2-2-2--2-2-2--2-2-2--2-2-2--2-3-3-3-3--5-5-5-5-----|
G|-0-0--0-0-0--0-0-0--0-0-0--0-0-0--0-0-0--0-3-3-3-3--5-5-5-5-----|
C|-------------------------------------------3-3-3-3--5-5-5-5-----|
   ----------------------------------------------------------
git1 git2
D|------------------------------|----------------------------------|
A|-------5*-5*-5*-5*-5*-5*------|----------------------------------|
F|-2-2-2------------------------|----------------------------------|
C|-2-2-2---------------------3x-|-3-3-3-3-3-3-3-3------------------|
G|-0-0-0------------------------|-3-3-3-3-3-3-3-3------------------|
C|------------------------------|-3-3-3-3-3-3-3-3------------------|

git1 git2
D|------------------------------|----------------------------------|
A|------------------------------|----------------------------------|
F|-2-2-2-5*-5*-5*-5*-5*-5*------|------------------2---------------|
C|-2-2-2---------------------3x-|-3-3-3-3-3-3-3-3--2---------------|
G|-0-0-0------------------------|-3-3-3-3-3-3-3-3--0---------------|
C|------------------------------|-3-3-3-3-3-3-3-3------------------|
				  ---------------
Tap to rate this tab
# A B C D E F G H I J K L M N O P Q R S T U V W X Y Z