Song name
# A B C D E F G H I J K L M N O P Q R S T U V W X Y Z

Bump Of Chicken - Hybrid Rainbow tab

Alright so....
Heres the beginning of BOC hybrid rainbow cover,
Enjoy,
any comments or corrections?
Email me at Fullmetal_rocker2000@yahoo.com


Tuning: Standard

     *Hold
e|---6---3--6--3--6--4--6--4--6--4--6--------6----------4---------3-----|
B|---4---------------------------------3--6----6---1--4---4-----4-------|
G|------------------------------------------------------------3---------|
D|----------------------------------------------------------------------|
A|----------------------------------------------------------------------|
E|----------------------------------------------------------------------|

e|---6---3--6--3--6--4--6--4--6--4--6--------6----------4---------3-----|
B|---4---------------------------------3--6----6---1--4---4-----4-------|
G|------------------------------------------------------------3---------|
D|----------------------------------------------------------------------|
A|----------------------------------------------------------------------|
E|----------------------------------------------------------------------|

e|----------------------------------------------------------------------|
B|-4---3-------1--------------------------------------------------------|
G|-5---3---3---1--------------------------------------------------------|
D|---------5--------------Repeat the whole thing again------------------|
A|----------------------------------------------------------------------|
E|----------------------------------------------------------------------|


Thats Mostly all of the Acoustic guitar in it





| /  slide up
| \  slide down
| h  hammer-on
| p  pull-off
| ~  vibrato
| +  harmonic
| x  Mute note
===============================================================================
Tap to rate this tab
# A B C D E F G H I J K L M N O P Q R S T U V W X Y Z