Song name
# A B C D E F G H I J K L M N O P Q R S T U V W X Y Z

Buono - Goal tab

Buono! - Goal!
tabbed by manOutOfTime

Some chords:
Dsus2 xx0230
A/D   xx0220
Em7   022033

**Intro**
Dsus2

**Verse**
Dsus2                                  A/D Bm
katachi no nai mono bakari hoshigatte  sabishikunatta
Dsus2		                       A/D  Bm
nichijou wo ou no ga seiippai de   soko ni saku hanami otoshiteta
G                Em7
bokura wa doko e mukau no

Dsus2                                  A/D  Bm
jibun rashisa ni kodawari sugiru  hodo chis sakunatta

----------------------------------------------------------------------------|
----------------------------------------------------------------------------|
-9v--11----11----11---------------------------------------------------------|
--------12----11----9\7-----------------------------------------------------|
----------------------------------------------------------------------------|
----------------------------------------------------------------------------|

Dsus2		                            A/D    Bm
osanai koro mita yume no hanashi ima mo kokoro no oku ni shimatte aru
G                Em7           Dsus2
yozora miagete kimi no koto wo omotte utau  yo

**Chorus**
G                  A         D             Bm
*bokura wa tabi no tochuu de nandomo Janpu kurikaeshi
F#m       A          D       Bm
"koko ni iru yo" tte sakende iru
G         A       D            Bm
korondemo na ohai agari arukidasu
G             A           Dsus2
Go-ru wa mada mienai keredo

10-10--9-10--12-10-9-10brbrb-----------------|
---------------------------------------------|
---------------------------------------------|
---------------------------------------------|
---------------------------------------------|
---------------------------------------------|
over: Dsus2

--------------------------------------||------------------------------------|
-10brbrb-9brbrb-8brbrb-7brbrb-6b-5b---||------------------------------------|
--------------------------------------||------------------------------------|
--------------------------------------||------------------------------------|
--------------------------------------||------------------------------------|
--------------------------------------||------------------------------------|
over:
 A       G#     G      F#     F  E

Dsus2						  A/D Bm
mirai no boku ni ima aeru no nara  ba tazu netainda
Dsus2                                A/D  Bm
nagareru sorame no mae ni tsuzuiteru kono michi wa nee tadashii yo ne
G                Em7     Dsus2
fukitsukeru kaze kimi no yasashii koe wo hakobu yo

G                  A         D             Bm
bokura no tabi wa tsuzuku yo itsuka kawashita yakusoku wo
F#m       A          D       Bm
mune no Poketto ni shimai nagara
G         A       D            Bm
mubou na jikan wo koete tadoritsuke
G        A           D
tsuyosa mo yowasa mo dakishimete

**Solo**
--------------|-------------------------------------------------------------|
-------10tr---|-------------------------------------------------------------|
--9b10------9-|-------------------------------------------------------------|
--------------|-------------------------------------------------------------|
--------------|-------------------------------------------------------------|
--------------|-------------------------------------------------------------|
 Mess around with this for a bit

G                Em7
bokura wa doko e mukau no

-------14-------------------------------------------------------------------|
-14h15----14---15---17------------------------------------------------------|
----------------------------------------------------------------------------|
----------------------------------------------------------------------------|
----------------------------------------------------------------------------|
----------------------------------------------------------------------------|
 Vocal

G                  A         D             Bm
*bokura wa tabi no tochuu de nandomo Janpu kurikaeshi
F#m       A          D       Bm
"koko ni iru yo" tte sakende iru
G         A       D            Bm
korondemo na ohai agari arukidasu
G        A           D
Go-ru wa mada mienai keredo

G                  A         D                Bm
bokura no tabi wa tsuzuku yo itsuka kawashita yakusoku wo
F#m       A           D       Bm
mune no Poketto ni shimai nagara
G         A       D            Bm
mubou na jikan wo koete tadoritsuke
G        A           D
tsuyosa mo yowasa mo dakishimete

**Outro**
-0-0---0-0-0--0-0-0-0-|-0-0---0-0-0---0-0-0-0-|-0-0-0-------------|-0-0---0-0-|
-5-5---5-5-5--3-3-1-3-|-3-3---3-3-3---1-1---1-|-5-5-5---3-3-3-3-3-|-5-5---5-5-|
----------------------|-------------------4---|---------5-5-5-4-5-|-----------|
----------------------|-----------------------|-------------------|-----------|
----------------------|-----------------------|-------------------|-----------|
----------------------|-----------------------|-------------------|-----------|
 CAPO2

-0---0-0-0-|-------|---------------|-----------------|----------------|------|
-5---3-1-3-|-------|---------------|-----------------|----------------|------|
-----------|-------|---9p7---------|-9p7-------------|-9p7--------7---|------|
-----------|-------|-7-----9p7-9---|-----9p7-9--11-9-|-----9p7-9----9-|------|
-----------|-------|---------------|-----------------|----------------|------|
-----------|-------|-----------x4--|-----------------|----------------|------|
 ^rpt till end       ^On top after 1st time (no capo)

-------------------|---------------------------------------------------------|
-------------------|---------------------------------------------------------|
-9p7--------7------|---------------------------------------------------------|
-----9p7-9----9----|---------------------------------------------------------|
-------------------|---------------------------------------------------------|
-------------------|---------------------------------------------------------|
Tap to rate this tab
 
# A B C D E F G H I J K L M N O P Q R S T U V W X Y Z