Song name
# A B C D E F G H I J K L M N O P Q R S T U V W X Y Z

Burden Brothers - Still tab

Tabbed by: Patrick Smith
first tab i've written, not first thing i've figured out by ear.
but i'm pretty sure this is the way its played..

Song: Still (Intro)
Album: Mercy
Artist: Burden Brothers


I think he uses a wah pedal slightly

|-----------------------------------------------|
|---7b9r7--------7b9r7-------7b9r7--------------|
|-6---------9--6--------8--6---------8--6-8-9--6|
|-----------------------------------------------|
|-----------------------------------------------|
|-----------------------------------------------| x2


|--------------------------------|
|---7-9--9-10-7----7-9--9-7------|
|-9--------------9----------9----|
|--------------------------------|
|--------------------------------|
|--------------------------------|

repeat first part.
Tap to rate this tab
# A B C D E F G H I J K L M N O P Q R S T U V W X Y Z