Song name
# A B C D E F G H I J K L M N O P Q R S T U V W X Y Z

Burn Halo - Here With Me tab

This is my first tab ive ever done. so it should be just about 90% right. Im still
on it. I haven't finished the chorus or haven't got to the solo. evertime i start to 
on
something comes up. I done this in standard tuning. Ive never figured out how to do a 
d if this is played in drop d. Any questions or suggestions my email is crazychevy92@yahoo.com

Intro 3x                     end with this
-------------------------------------------|
-15--14-13-12--14-13-12-----------------15-|
---12--------13--------------------12-15---|
------------------------------12-15--------|
-------------------------------------------|
-------------------------------------------|

Verse just keep strumming the 7-5 until you hear the change then its the 9-7
---------|
---------|
---------|
---------|
-7---9-9-|
-5---7-7-|

prechorus
-------------------------------|
-----9-11-10-9-----------------|
-9-11---------9-11-------------|
-------------------------------|
-------------------------------|
-------------------------------|

chorus
-------------------------------|
-------------------------------|
-9-7---9-7---------------------|
----9-7---9-7------------------|
-------------------------------|
-------------------------------|
Tap to rate this tab
# A B C D E F G H I J K L M N O P Q R S T U V W X Y Z