Song name
# A B C D E F G H I J K L M N O P Q R S T U V W X Y Z

Burn Halo - Dirty Little Girl tab

-------------------------------------------------------------------------------
			     Burn Halo - Dirty Little Girl
-------------------------------------------------------------------------------
Tabbed by:TrainWreck of ExA aka Eternal Assault
Email:dj_cucumber_slice3@yahoo.com

Tuning:Drop D
If uve got any questions hit me up 

solo is correct, i just mightve made a mistake but its the right notes

Intro: 

e|-------------------------------------------------------  \                 
B|-------------------------------------------------------   \       
G|-------------------------------------------------------    \ x 2     
D|-------------------------------------------------------    / 
A|-----3p0-3~--------------------3p0-3~---------3-4-5----   /
D|0--0-------6-5-3-0-3-5-6-0--0---------6-5-3-0-------0--  /

                          

e|-------------------------------------------------------------------  \  
B|-------------------------------------------------------------------   \
G|-------------------------------------------------------------------    \x 2
D|-------------------------------------------------------------------    /
A|0--0-10-0-10~--6-5-3-0-3-5-6-0--0--10-0-10~--6-5-3-0-10-11-12------   /
D|0--0-10-0-10~--6-5-3-0-3-5-6-0--0--10-0-10~--6-5-3-0-10-11-12------- /


Verse:

e|------------------------------------------- \
B|-------------------------------------------  \
G|-------------------------------------------   \ x4  Leave the last D5 
D|-------------------------------------------   /     out the 4th time
A|0--0--0--s3--------------------------------  /
D|0--0--0------6-5-0-3-5-3-0----------------- /

Pre-Chorus:

e|-----------------------------------------------------------------------|
B|-----------------------------------------------------------------------|  
G|-----------------------------------------------------------------------|  
D|-----------------------------------------------------------------------|   
A|7-7-7--7--7--7-7-7--7--7--7--5-0-5-0-5-0-5-0-5-0-5-0-5-0-5-0-5-0-5-0---|
D|7-7-7--7--7--7-7-7--7--7--7--5-0-5-0-5-0-5-0-5-0-5-0-5-0-5-0-5-0-5-0---|

e|-----------------------------------------------------------------------|
B|-----------------------------------------------------------------------|  
G|-----------------------------------------------------------------------|  
D|-----------------------------------------------------------------------|   
A|7-7-7--7--7--7-7-7--7--7--7--10-10-10-10-10-10-10-10-10-10-10-10-10----|
D|7-7-7--7--7--7-7-7--7--7--7--10-10-10-10-10-10-10-10-10-10-10-10-10----|

Chorus:

e|-------------------------------------------------------------------------------|
B|-------------------------------------------------------------------------------|  
G|7-7-7-7-7-7-7-7----------------------------------------------------------------|  
D|7-7-7-7-7-7-7-7----------------------------------------------------------------|   
A|5-5-5-5-5-5-5-5--3-3-3-3-3-3-3-3--5-5-5-5-5-5-5-5--0-0-0-0-3p0-3p0-0-0-0-0-xxxx|
D|0-0-0-0-0-0-0-0--3-3-3-3-3-3-3-3--5-5-5-5-5-5-5-5--0-0-0-0-3p0-3p0-0-0-0-0-xxxx|

e|-----------------------------------------------------------------------|
B|-----------------------------------------------------------------------|  
G|7-7-7-7-7-7-7-7--------------------------------------------------------|  
D|7-7-7-7-7-7-7-7--------------------------------------------------------|   
A|5-5-5-5-5-5-5-5--3-3-3-3-3-3-3-3--5-5-5-5-5-5-5-5--3-3-3-3-5-5-5-5-----|
D|0-0-0-0-0-0-0-0--3-3-3-3-3-3-3-3--5-5-5-5-5-5-5-5--3-3-3-3-5-5-5-5-----|

the part after the chorus:

e|--------------------------------------------------------------|              
B|--------------------------------------------------------------|          
G|--------------------------------------------------------------|         
D|\10-----------------------------------------------------------|    
A|\10----------------0-0-3p0p3-----------10-11-12---------------|   
D|\10--6-5-3-0-3-5-6-0-0-------0-6-5-3-0-10-11-12---------------|  


Verse:

e|------------------------------------------- \
B|-------------------------------------------  \
G|-------------------------------------------   \ x4  Leave the last D5 
D|-------------------------------------------   /     out the 4th time
A|0--0--0--s3--------------------------------  /
D|0--0--0------6-5-0-3-5-3-0----------------- /

Pre-Chorus:

e|-----------------------------------------------------------------------|
B|-----------------------------------------------------------------------|  
G|-----------------------------------------------------------------------|  
D|-----------------------------------------------------------------------|   
A|7-7-7--7--7--7-7-7--7--7--7--5-0-5-0-5-0-5-0-5-0-5-0-5-0-5-0-5-0-5-0---|
D|7-7-7--7--7--7-7-7--7--7--7--5-0-5-0-5-0-5-0-5-0-5-0-5-0-5-0-5-0-5-0---|

e|-----------------------------------------------------------------------|
B|-----------------------------------------------------------------------|  
G|-----------------------------------------------------------------------|  
D|-----------------------------------------------------------------------|   
A|7-7-7--7--7--7-7-7--7--7--7--10-10-10-10-10-10-10-10-10-10-10-10-10----|
D|7-7-7--7--7--7-7-7--7--7--7--10-10-10-10-10-10-10-10-10-10-10-10-10----|

Chorus:

e|-------------------------------------------------------------------------------|
B|-------------------------------------------------------------------------------|  
G|7-7-7-7-7-7-7-7----------------------------------------------------------------|  
D|7-7-7-7-7-7-7-7----------------------------------------------------------------|   
A|5-5-5-5-5-5-5-5--3-3-3-3-3-3-3-3--5-5-5-5-5-5-5-5--0-0-0-0-3p0-3p0-0-0-0-0-xxxx|
D|0-0-0-0-0-0-0-0--3-3-3-3-3-3-3-3--5-5-5-5-5-5-5-5--0-0-0-0-3p0-3p0-0-0-0-0-xxxx|

e|-----------------------------------------------------------------------|
B|-----------------------------------------------------------------------|  
G|7-7-7-7-7-7-7-7--------------------------------------------------------|  
D|7-7-7-7-7-7-7-7--------------------------------------------------------|   
A|5-5-5-5-5-5-5-5--3-3-3-3-3-3-3-3--5-5-5-5-5-5-5-5--3-3-3-3-5-5-5-5-----|
D|0-0-0-0-0-0-0-0--3-3-3-3-3-3-3-3--5-5-5-5-5-5-5-5--3-3-3-3-5-5-5-5-----|

Solo :

e|--------------------------------------------------------------------------------|
B|--------------------------------------------------------10-----10-12-13-13b~----|
G|5b-5b-5br~--4-5-4-2-4-2-4-5--5br~--7br~--9br~---9-10-12-----12------------------|
D|--------------------------------------------------------------------------------|
A|--------------------------------------------------------------------------------|
D|--------------------------------------------------------------------------------|

e|------------------------------------------------------------------15-15b~--|
B|10-10-10-12b-10h12p10--------------------------------13-12-13-13~----------|
G|----------------------12-12b-10-10--------10-12-12b~-----------------------|
D|------------------------------------12-12----------------------------------|
A|---------------------------------------------------------------------------|
D|---------------------------------------------------------------------------|

e|-13h15p13-12h13p12-10h12p10------------------------------------------------|
B|-----------------------------13-13b~~~~~~~~~~~~----------------------------|
G|---------------------------------------------------------------------------|
D|---------------------------------------------------------------------------|
A|---------------------------------------------------------------------------|
D|---------------------------------------------------------------------------|

e|---------------------------------------------------------------------------|
B|------------------------------------------------6--------------------------|
G|/7-5-7-5---------------5-/7-5-7-5------------------7~-5-7-5----------------|
D|--------5-3-5-5br-3--------------5-3-5-5br-3----------------5-3-5-5br-3----|
A|---------------------5------------------------5-------------------------5--|
D|---------------------------------------------------------------------------|

e|---------------------------------------------------------------------------|
B|---------------------------------------------------------------------------|
G|-5-/7-5-7-5-------------------5--------------------------------------------|
D|------------5-3-5-5br~-3---------------------------------------------------|
A|---------------------------5-----------------------------------------------|
D|---------------------------------------------------------------------------|

Chorus:

e|-------------------------------------------------------------------------------|
B|-------------------------------------------------------------------------------|  
G|7-7-7-7-7-7-7-7----------------------------------------------------------------|  
D|7-7-7-7-7-7-7-7----------------------------------------------------------------|   
A|5-5-5-5-5-5-5-5--3-3-3-3-3-3-3-3--5-5-5-5-5-5-5-5--0-0-0-0-3p0-3p0-0-0-0-0-xxxx|
D|0-0-0-0-0-0-0-0--3-3-3-3-3-3-3-3--5-5-5-5-5-5-5-5--0-0-0-0-3p0-3p0-0-0-0-0-xxxx|

e|-----------------------------------------------------------------------|
B|-----------------------------------------------------------------------|  
G|7-7-7-7-7-7-7-7--------------------------------------------------------|  
D|7-7-7-7-7-7-7-7-----------------------------------------------------12~|   
A|5-5-5-5-5-5-5-5--3-3-3-3-3-3-3-3--5-5-5-5-5-5-5-5--3-3-3-3-5-5-5-5--0--|
D|0-0-0-0-0-0-0-0--3-3-3-3-3-3-3-3--5-5-5-5-5-5-5-5--3-3-3-3-5-5-5-5--0--|

| /  slide up
| \  slide down
| h  hammer-on
| p  pull-off
| ~  vibrato
| +  harmonic
| x  Mute note
===============================================================================
Tap to rate this tab
# A B C D E F G H I J K L M N O P Q R S T U V W X Y Z