Song name
# A B C D E F G H I J K L M N O P Q R S T U V W X Y Z

Burn Halo - Save Me tab

   Save Me - Burn Halo
-------------------------------------------------------------------------------
Tabbed by:jtgray
E-mail:jtgray2011@hotmail.com

Tuning:Drop D
               Intro 2x
e|--------------------------------------------------------------------------|
B|--------------------------------------------------------------------------|
G|--------------------------------------------------------------------------|
D|------0-3h---------------0-3h-------------0-3h----5-5-5----0-3h---5-5-5---|
A|-0-3h-------0-0-0--0-3h--------0-0-0----0-3h------3-3-3--0-3h-----3-3-3---|
D|------------0-0-0--------------0-0-0--------------------------------------|
       verse riff a  2x
e|-------------------------|
B|-------------------------|
G|-------------------------|
D|-5-3h------5-3h----------|
A|-----5p0-0------5p0-0-0--|
D|---------0----------0-0--|
       verse riff b  2x
e|--------------------------|
B|--------------------------|
G|--------------------------|
D|-5-3h----5-5-3h----5-5----|
A|-----5p0-3-----5p0-3-5----|
D|--------------------------|
pre chorus
e|--------------------------------------------------------------------------|
B|--------------------------------------------------------------------------|
G|--------------------------------------------------------------------------|
D|---------------------0-3h-------------------------------------------------|
A|-88888888-555555-0-3h-----------------------------------------------------|
D|-88888888-555555----------------------------------------------------------|
        chorus
e|------------------|
B|------------------|
G|------------------|
D|------------------|  listen to song for timeing
A|-0-10-5-----------|
D|-0-10-5-----------|


************************************

| /   slide up
| \   slide down
| h   hammer-on
| p   pull-off
| ~   vibrato
| +   harmonic
| x   Mute note
| b   Bend
| pb  Pre-bend
| br  Bend release
| pbr Pre-bend release
| brb Bend release bend

************************************
Tap to rate this tab
 
# A B C D E F G H I J K L M N O P Q R S T U V W X Y Z