Song name
# A B C D E F G H I J K L M N O P Q R S T U V W X Y Z

Bush - A Tendency To Start Fires tab

Help us improve GuitareTab! Take a short survey!
#----------------------------------PLEASE NOTE--------------------------------#
#This file is the author's own work and represents their interpretation of the#
#song. You may only use this file for private study, scholarship, or research.#
#-----------------------------------------------------------------------------#
#-- File created with Instab - http://www.pconline.com/~smcarey/instab.html --#
#-----------------------------------------------------------------------------#

Author/Artist: Bush
Title: Tendency To Start Fires
Transcribed by: Saverain
h hammer on
/ slide up
\ slide down
P.M. Palm Mute

Gt1 Tabbed

Standard Tuning

----|----------------------------------------------|--|-----------------------|
----|----------------------------------------------|--|-----------------------|
----|----------------------------------------------|--|-----------------------|
----|-12h14--14-14-12-12h14--14-14-12-12h14--12-12-|--|-----------------------|
----|-12-----12-12-12-12-----12-12-12-12-----12-12-|--|-----------------------|
----|----------------------------------------------|--|-----------------------|
   Intro

----|---------------------------------------|---------------------------------|
----|---------------------------------------|---------------------------------|
----|---------------------------------------|---------------------------------|
----|-12h14--14-14-12-12h14--14-14-12-12h14-|---------------------------------|
----|-12-----12-12-12-12-----12-12-12-12----|---------------------------------|
----|---------------------------------------|---------------------------------|
   Intro end

---------|--------------------------------------------------------------------|
---------|--------------------------------------------------------------------|
---------|--------------------------------------------------------------------|
---------|-10-12-12-12/14-------12-12-12-12-------10-12-12-12/14--------------|
---------|-x--x--x--x------8-8--12-12-12-12--8-8--x--x--x--x------8-8--8/10---|
---------|-8--10-10-10/12--6-6--10-10-10-10--6-6--8--10-10-10/12--6-6--6/8----|
   Preverse

------------|-----------------------------------------------------------------|
------------|-----------------------------------------------------------------|
------------|-----------------------------------------------------------------|
------------|-----------------------------------------------------------------|
-10-10-10-8-|-----------------------------------------------------------------|
-8--8--8--6-|-----------------------------------------------------------------|


----|----------------------------|--------------------------------------------|
----|-10---------6---------------|--------------------------------------------|
----|-9----------5---------------|--------------------------------------------|
----|-12---------8---------------|--------------------------------------------|
----|-12---------8---------------|--------------------------------------------|
----|-10---------6---------------|--------------------------------------------|
     Verse Chords (Mess with first chord and strum down second chord)

----|-------------------------------|--|-----------------------------|--------|
----|-------------------------------|--|-----------------------------|--------|
----|-------------------------------|--|-----------------------------|--------|
----|-3-3--10-10--7-7--5-5--5-5-5-0-|--|-3-3--10-10--7-7--5-5--5-5-5-|--------|
----|-3-3--10-10--7-7--5-5--5-5-5-0-|--|-3-3--10-10--7-7--5-5--5-5-5-|--------|
----|-1-1--8--8---5-5--3-3--3-5-3-0-|--|-1-1--8--8---5-5--3-3--3-3-3-|--------|
     Chorus                              Chorus end

----|------------------------------------------------------------|-------|---|
----|------------------------------------------------------------|-------|---|
----|-----------9------------------------------------------------|-------|---|
----|-8---10-10------8---10-10--------8---10-10---8---10-10------|---8-8-|---|
----|-x---x--x-------x---x--x---------x---x--x----x---x--x-------|---x-x-|---|
----|-6---8--8-------6---8--8--/12----6---8--8----6---8--8--/12--|-6-6-6-|---|
    Interlude                                                        P.M.

----|--------|--|---------------|---------------------------------------------|
----|--------|--|-1-------------|---------------------------------------------|
----|--------|--|-x-------------|---------------------------------------------|
----|--------|--|-3-------------|---------------------------------------------|
----|--------|--|-3-------------|---------------------------------------------|
----|--------|--|-1-------------|---------------------------------------------|
     Chorus       Chorus end
Related for A Tendency To Start Fires tab