Song name
# A B C D E F G H I J K L M N O P Q R S T U V W X Y Z

Bush - Letting The Cables Sleep tab

intro
e(-------------------------------------)
b(----6-3-----8-5----------------------)
g(----------------------3-----3-333336-)
d(--4-----3/6-----5/3-3-----3----------)
a(--4-----3/6-----5/3-3----------------)
D(--4-----3/6-----5/3-3---3------------)

verse
e(-------------------------)
b(-------------------------)
g(--6--6-635-8-855--5-55-5-)
d(-------------------------)
a(-------------------------)
D(-------------------------)
                  pm. .. .
pre-chorus/chorus
e(--------------)
b(--------------)
g(--------------)
d(--4-6-4-6-4-6-)
a(--4-6-4-6-4-6-)
D(--4-6-4-6-4-6-)

verse 2
e(-----------------)
b(-----------------)
g(----6-65---8-8/6-)
d(--4------6-------)
a(--4------6-------)
D(--4------6-------)

these notes are used quite frequently in that long outro
e(-------)
b(--8-10-)
g(-------)
d(-------)
a(-------)
D(-------)
Tap to rate this tab
# A B C D E F G H I J K L M N O P Q R S T U V W X Y Z