Guitaretab - guitar tabs
Song name
# A B C D E F G H I J K L M N O P Q R S T U V W X Y Z

Butthole Surfers - Sweat Loaf tab

#----------------------------------PLEASE NOTE---------------------------------#
#This file is the author's own work and represents their interpretation of the #
#song. You may only use this file for private study, scholarship, or research. #
#------------------------------------------------------------------------------##
From: BSinger1@aol.com

"Sweat Loaf" by the Butthole Surfers
(semi-cover of "Sweet Leaf" by Black Sabbath)

Lyrics: (intro, spoken, no guitar):

"Daddy, what does regret mean?
Well son, the funny thing about regret is,
It's better to regret something you have done,
Than to regret something you haven't done.
And by the way, if you see your mom this weekend,
Be sure and tell her, SATAN, SATAN, SATAN!!!"
[ Tab from: http://www.guitaretab.com/b/butthole-surfers/2729.html ]
Distorted (this part is the Black Sabbath riff)

-------------------------------------|
-------------------------------------|
-------7----6----5--------      play-| 12 times
---7---------------------------------|
---7---------------------------------|
---5---------------------------------|


Clean

--5----------------5---------------------------------|
----5------------5------5---------5------------------|        play 4 times
------6-------6-----------5---5-----5---5------------|
--------7---7---------------5---------5--------------|
----------7------------------------------------------|
-----------------------------------------------------|


Repeat both until insanity sets in.

-------------------------------------------
If anyone has the bass line for this, please post it.

BIll Singer
BSinger1@aol.com
Related for Sweat Loaf tab