Song name
# A B C D E F G H I J K L M N O P Q R S T U V W X Y Z

Cage The Elephant - Come A Little Closer tab

Cage the Elephant - Come A Little Closer
Tuning: Standard


This is my first attempt at tabbing a song so any corrections/suggestions would be appreciated.


e|----4---4---4---------------11-----11----11----------------------|
B|-----5---5---5----------------12-----12----12--------------------|
G|---6--6---6---6----------13-----13-----13----13------------------|
D|--6--------------------13----------------------------------------|
A|-4-------------------11------------------------------------------|
E|-----------------------------------------------------------------|
     C#m               G#m                                         \
                                                                     x2
                                                                   /
e|-------9-----9-----9----------------4----------------------------|
B|--------10----10----10------------5---5--4---4-4-----------------|
G|----11----11----11----11---------6----------6-6------------------|
D|--11----------------------------6--------------------------------|
A|-9-----------------------------4---------------------------------|
E|-----------------------------------------------------------------|
   F#m                          C#m


e|----4---4---4---------------11-----11----11----------------------|
B|-----5---5---5----------------12-----12----12--------------------|
G|---6--6---6---6----------13-----13-----13----13------------------|
D|--6--------------------13----------------------------------------|
A|-4-------------------11------------------------------------------|
E|-----------------------------------------------------------------|
    C#m                G#m

e|-------9-----9-----9-----------------------------4---------------|
B|--------10----10----10----------2----------------5---------------|
G|----11----11----11----11--------2-------4--------6---------------|
D|--11----------------------------2-------4--------6---------------|
A|-9-----------------------------------------------4---------------|
E|-----------------------------------------------------------------|
    F#m                          x7ish    x2       x2 (quickly)




e|--5----9-----4----12-11-9-7-9-7----------------------------------|
B|--5----10----5-----------------9-7-------------------------------|
G|--6----11----6---------------------------------------------------|
D|--7----11----6---------------------------------------------------|
A|--7----9-----4---------------------------------------------------|
E|--5--------------------------------------------------------------|
    A    F#m   C#m


e|--5----9-----4-----12--11----------------------------------------|
B|--5----10----5-----13--12----------------------------------------|
G|--6----11----6-----14--13----------------------------------------|
D|--7----11----6-----14--13----------------------------------------|
A|--7----9-----4-----12--11----------------------------------------|
E|--5----------------12--11----------------------------------------|
    A   F#m   C#m    [Am  G#m]   [slowly strum through out]


e|--5----9-----4----12-11-9-7-9-7----------------------------------|
B|--5----10----5-----------------9-7-------------------------------|
G|--6----11----6---------------------------------------------------|
D|--7----11----6---------------------------------------------------|
A|--7----9-----4---------------------------------------------------|
E|--5--------------------------------------------------------------|
    A    F#m   C#m


e|--5----9-----4-----12--11----------------------------------------|
B|--5----10----5-----13--12----------------------------------------|
G|--6----11----6-----14--13----------------------------------------|
D|--7----11----6-----14--13----------------------------------------|
A|--7----9-----4-----12--11----------------------------------------|
E|--5----------------12--11----------------------------------------|
    A   F#m   C#m    Am  G#m

e|--5----9-----4~------9-------------------------------------------|
B|--5----10----5~--------9-----------------------------------------|
G|--6----11----6~--------------------------------------------------|
D|--7----11----6~--------------------------------------------------|
A|--7----9-----4~--------------------------------------------------|
E|--5--------------------------------------------------------------|
    A    F#m   C#m


e|----4---4---4---------------11-----11----11----------------------|
B|-----5---5---5----------------12-----12----12--------------------|
G|---6--6---6---6----------13-----13-----13----13------------------|
D|--6--------------------13----------------------------------------|
A|-4-------------------11------------------------------------------|
E|-----------------------------------------------------------------|
     C#m               G#m                                         
                                                                    
                                                                   
e|-------9-----9-----9----------------4----------------------------|
B|--------10----10----10------------5---5--4---4-4-----------------|
G|----11----11----11----11---------6----------6-6------------------|
D|--11----------------------------6--------------------------------|
A|-9-----------------------------4---------------------------------|
E|-----------------------------------------------------------------|
   F#m                          C#m


e|----4---4---4---------------11-----11----11----------------------|
B|-----5---5---5----------------12-----12----12--------------------|
G|---6--6---6---6----------13-----13-----13----13------------------|
D|--6--------------------13----------------------------------------|
A|-4-------------------11------------------------------------------|
E|-----------------------------------------------------------------|
    C#m                G#m


e|-------9-----9-----9-----------------------------4---------------|
B|--------10----10----10----------2----------------5---------------|
G|----11----11----11----11--------2-------4--------6---------------|
D|--11----------------------------2-------4--------6---------------|
A|-9-----------------------------------------------4---------------|
E|-----------------------------------------------------------------|
    F#m                           x7ish   x2       x2 (quickly)



e|--5----9-----4----12-11-9-7-9-7----------------------------------|
B|--5----10----5-----------------9-7-------------------------------|
G|--6----11----6---------------------------------------------------|
D|--7----11----6---------------------------------------------------|
A|--7----9-----4---------------------------------------------------|
E|--5--------------------------------------------------------------|
    A    F#m   C#m


e|--5----9-----4-----12--11----------------------------------------|
B|--5----10----5-----13--12----------------------------------------|
G|--6----11----6-----14--13----------------------------------------|
D|--7----11----6-----14--13----------------------------------------|
A|--7----9-----4-----12--11----------------------------------------|
E|--5----------------12--11----------------------------------------|
    A   F#m   C#m    Am  G#m


e|--5----9-----4----12-11-9-7-9-7----------------------------------|
B|--5----10----5-----------------9-7-------------------------------|
G|--6----11----6---------------------------------------------------|
D|--7----11----6---------------------------------------------------|
A|--7----9-----4---------------------------------------------------|
E|--5--------------------------------------------------------------|
    A    F#m   C#m


e|--5----9-----4-----12--11----------------------------------------|
B|--5----10----5-----13--12----------------------------------------|
G|--6----11----6-----14--13----------------------------------------|
D|--7----11----6-----14--13----------------------------------------|
A|--7----9-----4-----12--11----------------------------------------|
E|--5----------------12--11----------------------------------------|
    A   F#m   C#m    Am  G#m


e|--5----9-----4----12-11-9-7-9-7----------------------------------|
B|--5----10----5-----------------9-7-------------------------------|
G|--6----11----6---------------------------------------------------|
D|--7----11----6---------------------------------------------------|
A|--7----9-----4---------------------------------------------------|
E|--5--------------------------------------------------------------|
    A    F#m   C#m


e|--5----9-----4~------9-------------------------------------------|
B|--5----10----5~--------9-----------------------------------------|
G|--6----11----6~--------------------------------------------------|
D|--7----11----6~--------------------------------------------------|
A|--7----9-----4~--------------------------------------------------|
E|--5--------------------------------------------------------------|
    A    F#m   C#m


e|--4-4-4-4-4-4---4------------------------------------------------|
B|--5-5-5-5-5-5---5------------------------------------------------|
G|--6-6-6-6-6-6---6------------------------------------------------|
D|--6-6-6-6-6-6---6------------------------------------------------|
A|--4-4-4-4-4-4---4------------------------------------------------|
E|-----------------------------------------------------------------|
PM  - - - - - -           X5


e|-----------------------------------------------------------------|
B|-----------------------------------------------------------------|
G|-----------------------------------------------------------------|
D|-11--6----4----2----4----6----7----------------------------------|
A|------------------------------7----------------------------------|
E|------------------------------5----------------------------------|
                               A5

e|-----------------------------------------------------------------|
B|----9~-----[9br]-------------------------------------------------|
G|-----------------------------------------------------------------|
D|-----------------------------------------------------------------|
A|-----------------------------------------------------------------|
E|-----------------------------------------------------------------|
              [pick throughout w/ gradual bend and release]




e|--5----9-----4----12-11-9-7-9-7----------------------------------|
B|--5----10----5-----------------9-7-------------------------------|
G|--6----11----6---------------------------------------------------|
D|--7----11----6---------------------------------------------------|
A|--7----9-----4---------------------------------------------------|
E|--5--------------------------------------------------------------|
    A    F#m   C#m


e|--5----9-----4-----12--11----------------------------------------|
B|--5----10----5-----13--12----------------------------------------|
G|--6----11----6-----14--13----------------------------------------|
D|--7----11----6-----14--13----------------------------------------|
A|--7----9-----4-----12--11----------------------------------------|
E|--5----------------12--11----------------------------------------|
    A   F#m   C#m    Am  G#m


e|--5----9-----4----12-11-9-7-9-7----------------------------------|
B|--5----10----5-----------------9-7-------------------------------|
G|--6----11----6---------------------------------------------------|
D|--7----11----6---------------------------------------------------|
A|--7----9-----4---------------------------------------------------|
E|--5--------------------------------------------------------------|
    A    F#m   C#m


e|--5----9-----4~--------------------------------------------------|
B|--5----10----5~--------------------------------------------------|
G|--6----11----6~--------------------------------------------------|
D|--7----11----6~--------------------------------------------------|
A|--7----9-----4~--------------------------------------------------|
E|--5--------------------------------------------------------------|
    A    F#m   C#m



************************************

| /   slide up
| \   slide down
| h   hammer-on
| -   Palm Mute
| p   pull-off
| ~   vibrato
| +   harmonic
| x   Mute note
| b   Bend
| pb  Pre-bend
| br  Bend release
| pbr Pre-bend release
| brb Bend release bend

************************************

Time shakes, found you at the water
At first you were my father, now I love you like a brother
Earthquakes shake the dust behind you
This world at times will blind you
Still I know I'll see you there

Come a little closer, then you'll see
Come on, come on, come on
Things aren't always what they seem to be
Come on, come on, come on
Do you understand the things that you would see here
Come on, come on, come on
Do you understand the things that you've been dreaming
Come a little closer, then you'll see

Heartbreaks, the heavy world's upon your shoulders
Will we burn or we just smolder
Somehow I know I'll find you there
Oooh, I wanna see if you can change it, change it
Still I know I'll see you there

Come a little closer, then you'll see
Come on, come on, come on
Things aren't always what they seem to be
Come on, come on, come on
Do you understand the things that you would see here
Come on, come on, come on
Do you understand the things that you've been dreaming
Come a little closer, then you'll see
Come a little closer, then you'll see

Ten thousand people stand alone now
And in the evening the sun sets
Tomorrow it will rise
Time flies by, they all sang along
Time flies by, they all sang along
Time flies by, they all sang along
Time flies - bye, bye

Come a little closer, then you'll see
Come on, come on, come on
Come a little closer, then you'll see
Come a little closer, then you'll see
Come a little closer, then you'll see
Tap to rate this tab
 
# A B C D E F G H I J K L M N O P Q R S T U V W X Y Z