Song name
# A B C D E F G H I J K L M N O P Q R S T U V W X Y Z

Cake - Commissioning A Symphony In C tab

Commissioning a symphony SOLO 
CAKe

e:-----------------------------------|
b:--10-------------------------------|
g:----10---------9-------------------|
d:------12p11h12---12\--6--7---------|
a:---------------------------10p8p7--|
E:-----------------------------------|

e:-------------------------------------|
b:--10-----------------/10-8~------12--|
g:----10---------9h10------------------|
d:------12p11h12-------------/12-------|
a:-------------------------------------|
E:-------------------------------------|

e:---------------------------------|
b:----------------------6-6/8-7----|
g:--------5-7-5h7p5----------------|
d:--8-7-8-----------8-7-7-7/8-6----|
a:---------------------------------|
E:---------------------------------|

e:----------------10-8~-----13---12---10----|  
b:----------6/8-10-------10---10---10-------|
g:--7-5-7-9---------------------------------|
d:------------------------------------------|
a:------------------------------------------|
E:------------------------------------------|


Second Time Around

End of solo

e:---------------------------------10-8~-----13---12---10----|  
b:----------6----------------6/8-10-------10---10---10-------|
g:--7-5-7-9--9-7-6---7-5-7-9---------------------------------|
d:-----------------------------------------------------------|
a:-----------------------------------------------------------|
E:-----------------------------------------------------------|

::marcom::
Tap to rate this tab
# A B C D E F G H I J K L M N O P Q R S T U V W X Y Z