Song name
# A B C D E F G H I J K L M N O P Q R S T U V W X Y Z

Cake - Sick Of You tab

CAKE - SICK OF YOU

THESE ARE ALL THE PARTS TO THE SONG.

ALL BASS
1]--------------|
2]--------------|
3]--------------|
4]--------------|
5]--------------|
6]--0-0-0-2-3-4-|

ALL RYTHYM GUITAR
   E   A   D   E  A E A E
1]------------------------|
2]---------3--------------|
3]-----2---2------2-0-2-0-|
4]-2---2---0---2--2-0-2-0-|
5]-2---0-------2----------|
6]-0-----------0----------|

VERSE LEAD GUITAR
     E            A           D           E
1]----------------------------------------------------|
2]----------------------------------------------------|
3]----------------------------------------------------|
4]-----------2-0----------0---------------------------|
5]---------0------------2---4-------0-4-2-------0-----|
6]-0-0-2-4--------0-2-4-------0-2-4-------0-2-4---0-0-|

CHORUS LEAD GUITAR
1]-------------------------------------------------|
2]-------------------------------------------------|
3]-------------------------------------------------|
4]-------------------------------------------------|
5]-------------------------------------------------|
6]-0-0-3-0-5-0-7-0-9-10-12---0-0-3-0-5-0-7-0-5-3-0-|

VERSE 2 SYNTH
1]-7-7-7-5-0---9-9-9-5-0---10-10-10-5-0---7-7-7-5-0-|
2]--------------------------------------------------|
3]--------------------------------------------------|
4]--------------------------------------------------|
5]--------------------------------------------------|
6]--------------------------------------------------|
Tap to rate this tab
 
# A B C D E F G H I J K L M N O P Q R S T U V W X Y Z