Guitaretab - guitar tabs
Song name
# A B C D E F G H I J K L M N O P Q R S T U V W X Y Z

Cale J J - After Midnight tab

After Midnight solo (album version)
[ Tab from: http://www.guitaretab.com/c/cale-j-j/2911.html ]
|---------------------------------------------------------5---------------------|
|-------------------66-(6)------------(8)b10b8---6----------6---8---6--8(6)7--|
|--(7)b9b7-----5-7------------7-5h6--------------------7------------------------|
|-------------------------------------------------------------------------------|
|-------------------------------------------------------------------------------|
|-------------------------------------------------------------------------------|
								
|-------------------------------------------------------------------------------|
|-----------------------------(6)b7---------------(6)b7---8h10---8-8---6-8(6)7-|
|--7-5--7-----------5-7-5-7----------7-5----7-7--------------------------------|
|--------------5-7--------------------------------------------------------------|
|-------------------------------------------------------------------------------|
|-------------------------------------------------------------------------------|

|---------5---------------------------------------------------------------------|
|-------------7-8b10------8-6-8-6---------------6-----------------------------|
|--7-7 ------------------------------7----5-7-7------7-5-7-7------------------|
|-------------------------------------------------------------------------------|
|-------------------------------------------------------------------------------|
|-------------------------------------------------------------------------------|
Related for After Midnight tab