Guitaretab - guitar tabs
Song name
# A B C D E F G H I J K L M N O P Q R S T U V W X Y Z

Cale J J - Cajun Moon tab

Cajuun Moon From "Okie" album.

Recorded in Ebminor
Arranged in Eminor


****** TULSA SOUND ******

Intro

Em7  A  Em7  A  Em7  B7 A Em7

|-----------------5------------------------------5------------------------------|
|--15b17--15-12---5----15-12-15-1215b1715-12---5----15-12-15-12-15b17-15-12---|
|-----------------6------------------------------6------------------------------|
|-----------------7------------------------------7------------------------------|
|-------------------------------------------------------------------------------|
|-------------------------------------------------------------------------------|
								
|---7---------------------------------------------------------------------------|
|---7---------------------------------------------------------------------------|
|---8---14-12-14-12-14b16--14-12-14-12-14b16--14-12-14-12-----------------------|
|---9------------------------------------------------------1412h14p12h14p12h14-|
|-------------------------------------------------------------------------------|
|-------------------------------------------------------------------------------|


Em7			    A
Cajun moon, where does your power lie
       Em7		        A
As you move across the southern sky
            Em7          B7
You took my babe way too soon
              A           Em7
What have you done, cajun moon

Someday babe, when you want your man
And you find him gone, just like the wind
Dont trouble your mind whatever you do
cause cajun moon took him from you

SOLO:
[ Tab from: http://www.guitaretab.com/c/cale-j-j/2913.html ]
|-------------------------------------------------------------------------------|
|-------------------------------------------------------------------------------|
|-------14-12-14--14-12-----------12-12-------------12---------12--------12-----|
|---14--14-12-14--14-12----12-14---------14-12--12------12-14------12-14---14-12|
|---14--------------------------------------------------------------------------|
|-------------------------------------------------------------------------------|

|-------------------------------------------------------------------------------|
|-----------------------12-15---14---12---------------------15b17b1515b17-12---|
|-------------------12-------------------14---12p119p11----------------------14|
|--11--------12-14---------------------------------------11---------------------|
|-----12-12---------------------------------------------------------------------|
|-------------------------------------------------------------------------------|

|--------------------------------------------------------12---------------------|
|--12-------------------------------------------------12----15-12---------------|
|------14b16---12----------14-12----14p12----1214b16-------------14-1214p12---|
|14-----------------14-12---------14-------14-----------------------------------|
|-------------------------------------------------------------------------------|
|-------------------------------------------------------------------------------|

|-------------------------------------------------------------------------------|
|-------------------------------------------------------------------------------|
|-14-1212~~~-------------------------------------------------------------------|
|-------------------------------------------------------------------------------|
|-------------------------------------------------------------------------------|
|-------------------------------------------------------------------------------|


When daylight fades, the night comes on
You can hear the silence of this song
Dont trouble your mind whatever you do
cause he got me like he got you


BLUES FOR PEACE :)
Related for Cajun Moon tab
Cajun Moon chords by Cale J J